Song name
# A B C D E F G H I J K L M N O P Q R S T U V W X Y Z

Cradle Of Filth - Devil Woman tab

Cradle of Filth
Devil Woman
Tabbed by Filthianity1985

If this doesnt print or look right
copy paste it into Microsoft Notepad
and go to Format, Font and change it
to Lucida Console, Regular, size 7.
Thats how I tabbed it...wierd yes
but it gets the job done.

This tab is a bit sketchy hopefully it sounds alright
im not 100% on the tuning but at least its a guideline.

  RIFF A
e|----------------------------------------------------------------------------------------------------|
B|----------------------------------------------------------------------------------------------------|
G|----------------------------------------------------------------------------------------------------|
D|-0-0-0--0---2-3-2-0-5---5-5-7-7b1/2r--5---------------------------------0--0-0--0-0-0--0-0-0--0-0-0-|
A|-0-0-0--0---2-3-2-0-5---5-5-7-7b1/2r--5---3---------3-/5---3---------3--0--0-0--0-0-0--0-0-0--0-0-0-|
D|-0-0-0--0-------------------------------3---3-2-3-5------3---3-2-3-5----0--0-0--0-0-0--0-0-0--0-0-0-|
   . . .          . . .                                                   .  . .    . .  .. .  . . .

 RIFF B
e|-------------------------------------------------------------------------------|
B|-------------------------------------------------------------------------------|
G|-------------------------------------------------------------------------------|
D|-------------------------------------------------------------------------------|
A|-///--3---3-5-5b1/2r--3-6--5~~~--7-7b1/2--5--3---3-5-5b1/2r--3-6--5-0--0-0-0-0-|
D|-///----5--------------------------------------5--------------------0--0-0-0-0-|
                                                                      .  . . . .
  RIFF C
e|-------------------------------------------------------------------------|
B|-------------------------------------------------------------------------|
G|-------------------------------------------------------------------------|
D|-----------------------------------------3-3-3-3-3-3-3-3-2-2-2-2-2-0-0-0-|
A|-3----3-5-5b1/2r--3-6--5~~~--7-7b1/2r--5-1-1-1-1-1-1-1-1-0-0-0-0-0-0-0-0-|
D|---5-------------------------------------3-3-3-3-3-3-3-3-2-2-2-2-2-0-0-0-|
                                                                     . . .

                                                  _____________________________________
  RIFF D                                          |1.               |2.               |
||------------------------------------------------|-----------------|-----------------|
||------------------------------------------------|-----------------|-----------------|
||------------------------------------------------|-----------------|-----------------|
||-0----------------------------------------------|----3-------3---5|----3-----3---3-2|
||-0---5---3---6-5-----5---3---8-5----5---3---6-5-|--1---1-0-1---3--|--1---1-0---1----|
||-0-0-0-0-0-0-0-0---0-0-0-0-0-0-0--0-0-0-0-0-0-0-|-----------------|-----------------|
   . .   .   .       .   .   .      .   .   .

THEN PLAY RIFF A
THEN PLAY RIFF B
THEN PLAY RIFF C
THEN PLAY RIFF D w/1. & 2.

  RIFF E
e|-----------------------------------------|
B|-----------------------------------------|
G|-----------------------------------------|
D|-3~~~--2-3-5-3-2---3~~~--3-2-------------|
A|-----------------3-----------3-5-7-3-5\--|
D|---------------------------------------\-|
                                          *DIVE

THEN RIFF B
THEN RIFF C
THEN RIFF D w/ 1. & 2.
THEN RIFF D w/ 1. & 2. AND THATS THE END
Tap to rate this tab
# A B C D E F G H I J K L M N O P Q R S T U V W X Y Z