Song name
# A B C D E F G H I J K L M N O P Q R S T U V W X Y Z

Cradle Of Filth - Serpent Tongue tab

Artist: Cradle of Filth
Song: Serpent tongue
Album: Damnation And A Day
Tuning: C G C F A D


tp- tremlolo pick
~ - Let ring with Vibrato
pm- palm mute
p - pull off

1|--------------------------------------|
2|--12------------12-----------12-------|
3|-----11-9-12-------11-9-14------14-9--|
4|--------------------------------------|
5|--------------------------------------|
6|--------------------------------------|

1|---------------------------------------|
2|-12-----------13-------15----12--------|
3|----11-9-12------11-9-----------14-9---|
4|---------------------------------------|
5|---------------------------------------|
6|---------------------------------------|

1|--------------------------------------|
2|--12------------12-----------12-------|
3|-----11-9-12-------11-9-14------14-9--|
4|--------------------------------------|
5|--------------------------------------|
6|--------------------------------------|

1|--------------------------------------|
2|--12-----------13-------15----12------|
3|----11-9-12------11-9-----------14-9--|
4|--------------------------------------|
5|--------------------------------------|
6|--------------------------------------|

1|-----------|
2|-----------|
3|-----------|
4|-----------|
5|-----------|
6|--000--00--|

1|----------------------------------------------------------------|
2|----------------------------------------------------------------|
3|----------------------------------------------------------------|
4|--7-9---7-5----7--------7-9---7---9-7---9-10---|----------------|
5|--5-7------------5-7----5-7--------------------|--repeat twice--|
6|----------------------------------------------------------------|

1|--------------------------------------|
2|--------------------------------------|
3|--------------------------------------|
4|--5-7-5-8---7-5-7---------------------|
5|--3-5-3-6---5-3-5--3332--3--556655----|
6|-------------------3332--3--556655----|

1|------------------------------------------------------|
2|------------------------------------------------------|
3|------------------------------------------------------|
4|-5-8-5-6---5-8-----------------------|----------------|
5|-3-6-3-4---5-8---332222-3333-556688--|-reapeat twice--|
6|-----------------332222-3333-556688--|----------------|

1|-------------------------------------------|
2|-------------------------------------------|
3|-------------------------------------------|
4|-------------------------------------------|
5|--3--431-3----431--666--431-5--431-6--765--|
6|--3--431-3----431--666--431-5--431-6--765--|
Tap to rate this tab
# A B C D E F G H I J K L M N O P Q R S T U V W X Y Z