Song name
# A B C D E F G H I J K L M N O P Q R S T U V W X Y Z

Cradle Of Filth - I Am The Thorn tab

Where are you tab-writing guys?
I live on your tabs but now you seem to be gone...
So I'll have to take care of this myself
This is my SECOND tab from the Thornography album!

Cradle of Filth - I Am the Thorn
(Tune down 2 steps)

*intro*
-normal speed-
|------------------------------------------------------------|
|------------------------------------------------------------|
|--------------------------------4---------------5-----------|
|2-------------------------------4---------------5-----------|
|2-------------------------------2---------------3-----------|
|0-----------------------------------------------------------|

|------------------------------------------------------------|
|------------------------------------------------------------|
|------------------------------------------------------------|
|2-------------------------------5-----------4---5---4-------|
|2-------------------------------5-----------4---5---4-------|
|0-------------------------------3-----------2---3---2-------|

|------------------------------------------------------------|
|------------------------------------------------------------|
|--------------------------------4---------------5-----------|
|2-------------------------------4---------------5-----------|
|2-------------------------------2---------------3-----------|
|0-----------------------------------------------------------|

|------------------------------------------------------------|
|------------------------------------------------------------|
|------------------------------------------------------------|
|2-------------------------------5---------------8\7-5---4---|
|2-------------------------------5---------------8\7-5---4---|
|0-------------------------------3---------------6\5-3---2---|

*really cool part*
-double speed-                                          _________
|------------------------------------------------------------|  |
|------------------------------------------------------------|  |
|------------------------------------------------------------|  |
|5-----------5---------5-------------------------------------|  |
|5-----------5---------5-------------------------------------|  |
|3-3-3-3-3-3-3-3-3-3-3-3---------0---2---3---5---3---2---3---|  |
                                                                |
|------------------------------------------------------------|  |
|------------------------------------------------------------|  |
|--------------------------------------------3-------3-------|  |
|2-----------2---------2-----4---5---4---2---3-------3-------|  |
|2-----------2---------2-----4---5---4---2---1-------1-------|  |
|0-0-0-0-0-0-0-0-0-0-0-0-----2---3---2---0-------------------|  |
                                                                | 
|------------------------------------------------------------|  |
|------------------------------------------------------------|  |
|------------------------------------------------------------|  |
|5-----------5---------5-------------------------------------|  |
|5-----------5---------5-------------------------------------|  |
|3-3-3-3-3-3-3-3-3-3-3-3---------0---2---3---5---3---2---3---|  |
                                                                |
|------------------------------------------------------------|  |
|------------------------------------------------------------|  |
|------------------------------------------------------------|  |
|2-----------2---------2---------8-\-7-------5-------4-------|  |
|2-----------2---------2---------8-\-7-------5-------4-------|  |
|0-0-0-0-0-0-0-0-0-0-0-0---------6-\-5-------3-------2-------|  |
                                                       _________|---> x4

*slightly cool part*
-normal speed-                                         _________
|------------------------------------------------------------|  |
|------------------------------------------------------------|  |
|--------------------------------7---6-------6-7-6-6-9---9---|  |
|2-------------------------------7---6-------6-7-6-6-9---9---|  |
|2-------------------------------5---4-------4-5-4-4-7---7---|  |
|0-----------------------0---0-------------------------------|  |
                                                                |
|------------------------------------------------------------|  |
|------------------------------------------------------------|  |
|--------------------------------7---6-----------------------|  |
|2-------------------------------7---6-------8-\-7----5554---|  |
|2-------------------------------5---4-------8-\-7----5554---|  |
|0-----------------------0---0---------------6-\-5----3332---|  |
                                                       _________|---> x2  

*hard to figure out part*
|------------------------------------------------------------|
|------------------------------------------------------------|
|------------------------------------------------------------|
|------------------------------------------------------------|
|----5-6-----5-6-----4-5-----3-4-----5-6---5-6-8-6-5-6-8-6-5-6|
|3-------6-------5-------4-------3-------6-------------------|  x2

*brigde part*
|------------------------------------------------------------|
|------------------------------------------------------------|
|11~-----10~-8~--10~-----11~-----11~-----8~------------------|
|--------------------------------------------8~--7~------8~--|
|------------------------------------------------------------|
|------------------------------------------------------------|

|------------------------------------------------------------|
|------------------------------------------------------------|
|11~-----10~-8~--10~-----11~-----11~-----8~------------------|
|--------------------------------------------8~--7~--88--87-4|
|----------------------------------------------------88--87-4|
|----------------------------------------------------66--65-2|


Then
- Really cool part 2 times
- slightly cool part 2 times
- hard to figure out part 2 times
- bridge part 2 times (exept this in the end: 

|----------------|
|----------------|
|----------------|
|3---4---3-------|
|3---4---3-------|
|1---2---1-------| )

and after that

*other part*
|------------------------------------------------------------|
|------------------------------------------------------------|
|------------------------------------------------------------|
|2---5---4-------2---5---4-------3---6---5------3---6---3---5|
|2---5---4-------2---5---4-------3---6---5------3---6---3---5|
|0---3---2-------0---3---2-------1---4---3------1---4---1---3| x2

|--------|
|--------|
|9-9-9-9-|
|--------|
|--------|
|--------|
 x x x x (muted)

|------------------------------------------------------------|
|------------------------------------------------------------|
|------------------------------------------------------------|
|2---5---4-------2---5---4-------3---6---5------3---6---3---5|
|2---5---4-------2---5---4-------3---6---5------3---6---3---5|
|0---3---2-------0---3---2-------1---4---3------1---4---1---3| x2

*whatever part*
|------------------------------------------------|
|------------------------------------------------|
|------------------------------------------------|
|------------------------------------------------|
|------------------------------------------------|
|5-5-5-5-5-5-8-8-8-8-8-8-7-7-7-7-7-7-6-6-6-6-6-6-|

|------------------------------------------------|
|------------------------------------------------|
|------------------------------------------------|
|------------------------------------------------|
|------------------------------------6-6-6-6-6-6-|
|5-5-5-5-5-5-8-8-8-8-8-8-7-7-7-7-7-7-------------|

|------------------------------------------------|
|------------------------------------------------|
|------------------------------------------------|
|------------------------------------------------|
|------------------------------------------------|
|5-5-5-5-5-5-8-8-8-8-8-8-7-7-7-7-7-7-6-6-6-6-6-6-|

|------------------------------------------------|
|------------------------------------------------|
|------------------------------------------------|
|------------------------------------------------|
|------------------------------------6-5-6-6-----|
|5-5-5-5-5-5-8-8-8-8-8-8-7-7-7-7-7-7-------------|

then 
-half other part twice
and after that

*soft part*
|----------------------------------------------------------------|
|----------------------------------------------------------------|
|----------------------------------------------------------------|
|2---------------8-------5-------2---------------8-------5---8---|
|2---------------8-------5-------2---------------8-------5---8---|
|0---------------6-------3-------0---------------6-------3---6---| x2

|----------------------------------------------------------------|
|--------12------------------------------12----------------------|
|----------129-----------------------------129-------------------|
|2-------------9-8-------5-------2-------------9-8-------5---8---|
|2---------------8-------5-------2---------------8-------5---8---|
|0---------------6-------3-------0---------------6-------3---6---|

|----------------------------------------------------------------|
|----------------------------------------------------------------|
|--9\--9\--9\--9\------------------9\--9\--9\--9\----------------|
|--9\--9\--9\--9\8-------5---------9\--9\--9\--9\8-------5---8---|
|--7\--7\--7\--7\8-------5---------7\--7\--7\--7\8-------5---8---|
|0---0---0---0---6-------3-------0---0---0---0---6-------3---6---| x2

*bridge 2 part*
-double speed-
|----------------------------------------------------------------|
|----------------------------------------------------------------|
|----------------------------------------------------------------|
|7-----------7---------7---------7-------7-------8---7---8---10--|
|7-----------7---------7---------7-------7-----------------------|
|5-5-5-5-5-5-5-5-5-5-5-5---------5-------5-----------------------| x3

|----------------------------------------------------------------|
|----------------------------------------------------------------|
|----------------------------------------------------------------|
|7-----------7---------7---------5-------5-------7---5---7---8---|
|7-----------7---------7---------5-------5-----------------------|
|5-5-5-5-5-5-5-5-5-5-5-5---------3-------3-----------------------|

|----------------------------------------------------------------|
|----------------------------------------------------------------|
|----------------------------------------------------------------|
|7-----------7---------7---------7-------7-------8---7---8---10--|
|7-----------7---------7---------7-------7-----------------------|
|5-5-5-5-5-5-5-5-5-5-5-5---------5-------5-----------------------|

|----------------------------------------------------------------|
|----------------------------------------------------------------|
|----------------------------------------------------------------|
|7-----------7---------7---------5-------5-------7---5---7---8---|
|7-----------7---------7---------5-------5-----------------------|
|5-5-5-5-5-5-5-5-5-5-5-5---------3-------3-----------------------|

|----------------------------------------------------------------|
|----------------------------------------------------------------|
|----------------------------------------------------------------|
|7---5---7---8---7---5---7---8---7---5---7---8---10--8---7---8---|
|----------------------------------------------------------------|
|----------------------------------------------------------------|

|----------------------------------------------------------------|
|----------------------------------------------------------------|
|--------------------------------4-------------------------------|
|5-------------------------------4------------6--------5---------|
|5-------------------------------2------------6--------5---------|
|3--------------------------------------------4--------3---------|
                                 (mute)
sry i didnt do more, maybe ill do some other time
here is my mail if anything Efrendil@hotmail.com











Tap to rate this tab
# A B C D E F G H I J K L M N O P Q R S T U V W X Y Z