Song name
# A B C D E F G H I J K L M N O P Q R S T U V W X Y Z

Cradle Of Filth - Dirge Inferno tab

Artist: Cradle of Filth
Song: Dirge Inferno
Album: Thornography

Tuning: Drop D
Tabbed by: Tyler Marley

Tab Legend:
~ vibrato
/ slide up
\ slide down
* pinch harmonic
h hammer on
p pull off
. palm mute

Intro: Guitar 1                              
E|-------------------|--------------------|--------------------|
B|-------------------|--------------------|--------------------|
G|-------------------|--------------------|--------------------|
D|---7-8~---7-8~---7-|----7-8-7----7-8-10-|----7-8~---7-8~---7-|
A|-5------5------5---|-/6-------/8--------|-/5------5------5---|
D|-------------------|--------------------|--------------------|

                         (reapeat starting here)
|---------------------|  E|--------------------|--------------------|
|---------------------|  B|--------------------|--------------------|
|-----------------7*~-|  G|--------------------|--------------------|
|----7-8-7----7-8-----|  D|----7-8~---7-8~---7-|----7-8-7----7-8-10-|
|-/6-------/8---------|  A|-/5------5------5---|-/6-------/8--------|
|---------------------|  D|--------------------|--------------------|

|--------------------|---------------------|
|--------------------|---------------------|
|--------------------|-----------------7*~-|
|----7-8~---7-8~---7-|----7-8-7----7-8-----|
|-/5------5------5---|-/6-------/8---------|
|--------------------|---------------------|

Intro: Guitar 2 (reapeat)(quietly and let ring)
E|--------------------|-------------------|
B|--------------------|-------------------|
G|--------------------|-------------------|
D|-0------------------|-1--------3--------|
A|-0------------------|-1--------3--------|
D|-0------------------|-1--------3--------|



Intro Pt. 2: Guitar 1 (reapeat)
E|------------------|------------------|------------------|
B|------------------|------------------|------------------|
G|------------------|------------------|------------------|
D|-----77778888-----|-77778888----7777-|-----777788887777-|
A|-5555--------5555-|---------5555-----|-6666-------------|
D|------------------|------------------|------------------|

|----------------------|------------------|------------------|
|----------------------|------------------|------------------|
|----------------------|------------------|------------------|
|-----7777888810101010-|-----77778888-----|-77778888----7777-|
|-8888-----------------|-5555--------5555-|---------5555-----|
|----------------------|------------------|------------------|

                                          (last time replaces last bar)
|------------------|------------------|   |-----------|
|------------------|------------------|   |-----------|
|------------------|-------------7777-|   |-5-4-------|
|-----777788887777-|-----77778888-----|   |-5-4-4-3-2-|
|-6666-------------|-8888-------------|   |-3-2-4-3-2-|
|------------------|------------------|   |-----4-3-2-|


Intro Pt. 2: Guitar 2 (repeat)
E|------------------|------------------|------------------|
B|------------------|------------------|------------------|
G|------------------|------------------|------------------|
D|------------------|------------------|-------------3322-|
A|-5555777788885555-|-7777888855557777-|-111111111111-----|
D|------------------|------------------|------------------|

|------------------|------------------|------------------|
|------------------|------------------|------------------|
|------------------|------------------|------------------|
|-33333333---------|------------------|------------------|
|---------33333333-|-5555777788885555-|-7777888855557777-|
|------------------|------------------|------------------|

                                          (last time replaces last bar)
|------------------|------------------|   |-----------|
|------------------|------------------|   |-----------|
|------------------|-------------2222-|   |-5-4-------|
|-------------3322-|-----22223333-----|   |-5-4-4-3-2-|
|-111111111111-----|-3333-------------|   |-3-2-4-3-2-|
|------------------|------------------|   |-----4-3-2-|


Verse: Guitars 1 and 2 (repeat)
E|------------|-----------------|------------|---------------------|
B|------------|-----------------|------------|---------------------|
G|------------|-----------------|------------|---------------------|
D|-1-1-0--0-0-|-000-000-000-000-|-1-1-0--0-0-|---------------------|
A|-1-1-0--0-0-|-000-000-000-000-|-1-1-0--0-0-|-2h4-4/(5)-2h4-4/(5)-|
D|-1-1-0--0-0-|-000-000-000-000-|-1-1-0--0-0-|-2h4-4/(5)-2h4-4/(5)-|
     .    . .   ... ... ... ...     .    . .

|------------|-----------------|------------|-----------------|
|------------|-----------------|------------|-----------------|
|------------|-----------------|------------|-----------------|
|-1-1-0--0-0-|-000-000-000-000-|-1-1-0--0-0-|-----------------|
|-1-1-0--0-0-|-000-000-000-000-|-1-1-0--0-0-|-1h3-3p1-4h6-3h5-|
|-1-1-0--0-0-|-000-000-000-000-|-1-1-0--0-0-|-1h3-3p1-4h6-3h5-|
    .    . .   ... ... ... ...     .    . .   

Verse Pt. 2: Guitars 1 and 2 
E|---------------|-----|-------------------------|-------------------------|
B|---------------|-----|-------------------------|-------------------------|
G|---------------|-----|-------------------------|-------------------------|
D|--/5------(5)\-|-----|-14-14-13-13-14-14-16-16-|-17-17-16-16-14-14-16-14-|
A|--/5------(5)\-|-----|-14-14-13-13-14-14-16-16-|-17-17-16-16-14-14-16-14-|
D|--/5------(5)\-|-----|-14-14-13-13-14-14-16-16-|-17-17-16-16-14-14-16-14-|

(repeat from here)
|------------------|------------------|----------------|-----------------|
|------------------|------------------|----------------|-----------------|
|------------------|------------------|----------------|-----------------|
|-----33335555-----|-333355556666-----|-/9-------------|-----------------|
|------------------|-------------4444-|-/7-8-8-8-8-8-8-|-9-9-8-8-6-6-8-6-|
|-5555--------5555-|------------------|----8-8-8-8-8-8-|-9-9-8-8-6-6-8-6-|

|------------------|------------------|-------------------------|
|------------------|------------------|-------------------------|
|------------------|------------------|-------------------------|
|-----33335555-----|-333355556666-----|-------------------------|
|------------------|-------------4444-|-14-14-13-13-14-14-16-16-|
|-5555--------5555-|------------------|-14-14-13-13-14-14-16-16-|

                           (secend time replaces last 2 bars)     
|-------------------------||-----------------------|-----------------------|
|-------------------------||-----------------------|-----------------------|
|-------------------------||-----------------------|-----------------------|
|-------------------------||14-14-13-13-14-14-16-16|17-17-16-16-14-14-16-14|
|-17-17-16-16-14-14-16-14-||14-14-13-13-14-14-16-16|17-17-16-16-14-14-16-14|
|-17-17-16-16-14-14-16-14-||14-14-13-13-14-14-16-16|17-17-16-16-14-14-16-14|

Chorus: Guitars 1 and 2 (repeat)
E|-----------------|-----------------|-----------------|-----------------|
B|-----------------|-----------------|-----------------|-----------------|
G|---3-4---3-4---3-|---3-4-3---3-4-6-|---3-4---3-4---3-|---3-4-3---4-3---|
D|---3-4---3-4---3-|---3-4-3---3-4-6-|---3-4---3-4---3-|---3-4-3-4-4-3-0-|
A|-0-1-2-0-1-2-0-1-|-0-1-2-1-0-1-2-4-|-0-1-2-0-1-2-0-1-|-0-1-2-1-4-2-1-0-|
D|-0-----0-----0---|-0-------0-------|-0-----0-----0---|-0-------4-----0-|
   .     .     .     .       .         .     .     .     .


Verse...



Verse Pt. 2...



Chorus...



Intro...



Intro Pt. 2...



Interlude: Guitar1 (repeat)
E|-----------------|-----------------|-----------------|
B|-----------------|-----------------|-----------------|
G|-----------------|-----------------|-----------------|
D|-5-5-5-5-5-5-7-8-|-5-5-5-5-5-5-7-8-|-6-6-6-6-6-6-7-8-|
A|-----------------|-----------------|-----------------|
D|-----------------|-----------------|-----------------|

|---------------------|-----------------|-----------------|
|---------------------|-----------------|-----------------|
|---------------------|-----------------|-----------------|
|-10-10-10-10-9-9-----|-5-5-5-5-5-5-7-8-|-5-5-5-5-5-5-7-8-|
|-----------------9-9-|-----------------|-----------------|
|---------------------|-----------------|-----------------|

|-----------------------|---------------------|
|-----------------------|---------------------|
|-----------------------|---------------------|
|-10-10-9-9-11-11-10-10-|-12-12-11-11---------|
|-----------------------|-------------9--9-10-|
|-----------------------|---------------------|


Interlude: Guitar 2
E|-----------------|-----------------|-----------------|
B|-----------------|-----------------|-----------------|
G|-----------------|-----------------|-----------------|
D|-5-5-5-5-5-5-5-5-|-5-5-5-5-5-5-5-5-|-6-6-6-6-6-6-6-6-|
A|-5-5-5-5-5-5-5-5-|-5-5-5-5-5-5-5-5-|-6-6-6-6-6-6-6-6-|
D|-5-5-5-5-5-5-5-5-|-5-5-5-5-5-5-5-5-|-6-6-6-6-6-6-6-6-|

|-----------------|-----------------|-----------------|-----------------|
|-----------------|-----------------|-----------------|-----------------|
|-----------------|-----------------|-----------------|-----------------|
|-5-5-5-5-5-5-4-4-|-5-5-5-5-5-5-5-5-|-5-5-5-5-5-5-5-5-|-5-5-5-5-5-5-5-5-|
|-5-5-5-5-5-5-4-4-|-5-5-5-5-5-5-5-5-|-5-5-5-5-5-5-5-5-|-5-5-5-5-5-5-5-5-|
|-5-5-5-5-5-5-4-4-|-5-5-5-5-5-5-5-5-|-5-5-5-5-5-5-5-5-|-5-5-5-5-5-5-5-5-|

|--------------|
|--------------|
|--------------|
|-5-5-5-5-4----|
|-5-5-5-5-4----|
|-5-5-5-5-4----|



Verse...



Interlude...


               (These 1st 2 bars replace last                  
Outro: Guitar 1     2 interlude bars)           
E|-----------------------|---------------------|-----------------------|
B|-----------------------|---------------------|-----------------------|
G|-----------------------|---------------------|-----------------------|
D|-10-10-9-9-11-11-10-10-|-12-12-11-11---------|-10-10-9-9-11-11-10-10-|
A|-----------------------|-------------9--9-10-|-----------------------|
D|-----------------------|---------------------|-----------------------|
                                          . .

|---------------------|-----------|
|---------------------|-----------|
|---------------------|-----------|
|-12-12-11-11---------|-5-----5\--|
|-------------9--9-10-|-5-----5\--|
|---------------------|-5-----5\--|
                 . .

                (1st 2 bars replace
Outro: Guitar 2  last 2 interlude bars)
E|-----------------|--------------|---------------|--------------|
B|-----------------|--------------|---------------|--------------|
G|-----------------|--------------|---------------|--------------|
D|-5-5-5-5-5-5-5-5-|-5-5-5-5-4----|-10--9--11--10-|-12--11--4----|
A|-5-5-5-5-5-5-5-5-|-5-5-5-5-4----|-10--9--11--10-|-12--11--4----|
D|-5-5-5-5-5-5-5-5-|-5-5-5-5-4----|-10--9--11--10-|-12--11--4----|

|-----------|
|-----------|
|-----------|
|-5-----5\--|
|-5-----5\--|
|-5-----5\--|


Please Rate
Tap to rate this tab
 
# A B C D E F G H I J K L M N O P Q R S T U V W X Y Z