Song name
# A B C D E F G H I J K L M N O P Q R S T U V W X Y Z

Craft Spells - After The Moment tab

You get to figure out timing :)
                                             This is what the 2nd guitar
Chords for intro and whole song:             plays when the drum starts:

e|-7-7-7-7-7--9-9-9-9-9--5-5-5-5-5--2-2-2-2-2------------------14/----------|
B|-7-7-7-7-7--9-9-9-9-9--5-5-5-5-5--2-2-2-2-2---------------14--------------|
G|-7-7-7-7-7--9-9-9-9-9--6-6-6-6-6--2-2-2-2-2---------------14--------------|
D|--------------------------------------------------------------------------|
A|--------------------------------------------------------------------------|
E|--------------------------------------------------------------------------|

Intro lead:

e|--14/2---12-12-12-12-------12-12-12-12-------12-12-12-12------------------|
B|14------------------14-12-14----------14-12-14-----------14-12-14---------|
G|14------------------------------------------------------------------------|
D|--------------------------------------------------------------------------|
A|--------------------------------------------------------------------------|
E|--------------------------------------------------------------------------|

e|-------------------------------|
B|----12-14-12-----12-14-12------|
G|-14-----------14---------------|
D|-------------------------------|
A|-------------------------------|

Verse:

as we walk into the night
you kissed me and it felt right
all the lights followed closely behind
it's you and i who will hold out till the morning light

play this lead twice on the next verse:

e|---------------------------------------------------------------------------|
B|---------------------------------------------------------------------------|
G|------6--9--6--------6--4--------------------------------------------------|
D|--4h7------------4h7-------7-----------------------------------------------|
A|---------------------------------------------------------------------------|
E|---------------------------------------------------------------------------|

This is the verse mentioned above:

maybe it's your kiss, and your touch
that makes me want you more than love
all the lights followed closely behind
it's you and i who will hold out till the morning light

Chorus (repeat intro lead):

after the moment with you, after the moment with youuu
after the moment with you, after the moment with youuu

Bridge lead 1:
e|-----5----------5----------5----7-5------5----------5----------5----9-7----|
B|5h7---7---5h7----7----5h7----7-------5h7---7---5h7----7----5h7----7--------|
G|---------------------------------------------------------------------------|
D|---------------------------------------------------------------------------|
A|---------------------------------------------------------------------------|
E|---------------------------------------------------------------------------|

Bridge lead 2, something similar repeats near the end (synth):
e|-12---9--7--9-----12---9---------12---9--7--9-----12---9--------------------|
B|-------------------------12--10--------------------------12-10--------------|
G|----------------------------------------------------------------------------|
D|----------------------------------------------------------------------------|
A|----------------------------------------------------------------------------|
E|----------------------------------------------------------------------------|
Tap to rate this tab
 
# A B C D E F G H I J K L M N O P Q R S T U V W X Y Z