Song name
# A B C D E F G H I J K L M N O P Q R S T U V W X Y Z

Craft Spells - You Should Close The Door tab

                 
                 You Should Close the Door - Craft Spells



Intro:
e|---------------------------------------------------------------------------|
B|---------------------------------------------------------------------------|
G|-----11-8--13--11--------11-8--6-----8-6-----------------------------------|3x
D|---9-------------14-13-9---------8-4---------------------------------------|
A|---------------------------------------------------------------------------|
E|---------------------------------------------------------------------------|

and the last time:
e|-------------------------------------|
B|-------------------------------------|
G|-----11-8--13--11--------11--8--6----|
D|---9-------------14-13-9-------------|
A|-------------------------------------|
E|-------------------------------------|

Verse:
e|---------------------------------------------------------------------------|
B|---------------------------------------------------------------------------|
G|---8-6-8-11-8---6--8-6-8-11-8----8-6-8-11--13-13-13-11-8-6-(4)-------------|
D|---------------------------------------------------------------------------|
A|---------------------------------------------------------------------------|
E|---------------------------------------------------------------------------|

0:36
e|--------------------------|
B|--------------9-7---------|
G|---8-6-8-11-8-----8-6-8---|2x
D|--------------------------|
A|--------------------------|
E|--------------------------|

and the last time:
e|---------------------------------------------------------------------------|
B|--------------9-7----------------------------------------------------------|
G|---8-6-8-11-8-----8-6-8--6-8-6-8-6-8-6-8-6-4-------------------------------|
D|---------------------------------------------------------------------------|
A|---------------------------------------------------------------------------|
E|---------------------------------------------------------------------------|

That's all. Enjoy^^
Tap to rate this tab
# A B C D E F G H I J K L M N O P Q R S T U V W X Y Z