Song name
# A B C D E F G H I J K L M N O P Q R S T U V W X Y Z

Craig Cardiff - Smallest Wingless chords

Highlighted       Show chord diagrams
Craig Cardiff- Smallest Wingless

Tabbed by: David
Email: glucose.nz@gmail.com

Tuning: Standard

Capo 3rd Fret - Chords relative to capo


Verses

     D      Asus4      Em7        Gmaj        A7sus4/G
e|---2------0----------X----------X-----------X-------------------|
B|---3------3----------3----------3-----------3-------------------|
G|---2------2----------0----------0-----------0-------------------|
D|---0------2----------2----------0-----------2-------------------|
A|----------0----------2----------2-----------0-------------------|
E|---------------------0----------3-----------3-------------------|


Chorus

      Em7      Gmaj     D       Asus4                                      
e|----X--------X--------2-------0--------------------------------|
B|----3--------3--------3-------3--------------------------------|
G|----0--------0--------2-------2--------------------------------|
D|----2--------0--------0-------2--------------------------------|
A|----2--------2----------------0--------------------------------|
E|----0--------3-------------------------------------------------|

Intro: D
D                           Asus4   
Dear son, we've been waiting for you
Em7      Gmaj   A7sus4/G              D
Thrilled beside ourselves that you've arrived
                              Asus4
White coats came in, heads held low
            Em7    Gmaj   A7sus4/G     D
Talked for a bit, shuffled outside


              Em7
We closed the curtains,
           Gmaj
Held each other,
     D
And cried
        Asus4             Em7      Gmaj-A7sus4/G    D
We said hello at the same time that we said goodbye.



Smallest wingless
Leaving as soon as you'd arrived
But sadness is just love wasted
With no little heart to place it inside

We closed the curtains,
Held each other,
And cried
We said hello at the same time that we said goodbye



And that's basically it! 

Tap to rate this tab
 
# A B C D E F G H I J K L M N O P Q R S T U V W X Y Z