Song name
# A B C D E F G H I J K L M N O P Q R S T U V W X Y Z

Craig David - 2 Steps Back tab

Help us improve GuitareTab! Take a short survey!
---------------------------------------------------------------------------
			     2 Steps Back - Craig David
---------------------------------------------------------------------------
Tabbed by: bexin7
Email: bexin7@gmail.com

Tuning: Standard

e|---------------|--------------------------|
B|-----------4---|-----------1h2p1----------|
G|--------1------|----------------------1---|
D|---------------|-------3----------3-------|
A|-----3---------|---1----------------------|
E|-1-------------|--------------------------|

this is just repeated throughout the song



| h  hammer-on
| p  pull-off
===============================================================================
Related for 2 Steps Back tab