Song name
# A B C D E F G H I J K L M N O P Q R S T U V W X Y Z

Craig David - Hidden Agenda tab

-------------------------------------------------------------------------------
			     Hidden Agenda-Craig David
-------------------------------------------------------------------------------
Tabbed by:Jeff Kamungu
Email:geoffykom@yahoo.com

Tuning:Standard
Guitar 1:
        A(on D)        G(on A)
e|----0----0-----|-------------------|---------------------------------------|
B|----2----2-----|-----3-----3-------|---------------------------------------|
G|----2----2-----|-----4-----4-------|---------------------------------------|
D|--0------------|--------2----------|---------------------------------------|
A|---------------|--0------------0---|---------------------------------------|
E|---------3-----|-------------------|---------------------------------------|
   Guitar 2:
e|-------5-----------------------------------5-------------------------------|
B|--5/7------5---5---------------------5h7-------7---5-----------------------|
G|-----------------------4---7s6---------------------------------------------|
D|--------7----------5------------7------------------------------------------|
A|---------------------------------------------------------------------------|
E|---------------------------------------------------------------------------|

The whole song is played much in the same way throughout.
| /  slide up
| \  slide down
| h  hammer-on
| p  pull-off
| ~  vibrato
| +  harmonic
| x  Mute note
===============================================================================
Tap to rate this tab
# A B C D E F G H I J K L M N O P Q R S T U V W X Y Z