Song name
# A B C D E F G H I J K L M N O P Q R S T U V W X Y Z

Craig David - Seven Days Acoustic tab

Help us improve GuitareTab! Take a short survey!
seven Days - Craig David
Standard tuning (EADGbe)

intro/chorus/outro: (2 times)
---x---x--------------------------------------------------------|
---7---7--------------------------------------------------------|
---7h9-9--------------------------------------------------------|
---7---7----------------7-5-4-5-5p4-5p4-5-5/7-77----------------|
---7h8-8----8-8p7p5-7-5---------------------------5-7-7/8-------|
---7---7--------------------------------------------------------|
I met this girl on Monday...


verse: (slight palm mute)
---x---x-----3------------x-------------------------------------|
---7---7-----3------------2-------------------------------------|
---7h9-9-----2---2--------4---4---------------------------------|
---7---7-----0----0-------2----2--------------------------------|
---7h8-8-----1-----1------3-----3-------------------------------|
---7---7-----0------0-----2------2------------------------------|


breakdown:
---0-----3-----3-----5-------------------------------|
---2-----2-----3-----5-------------------------------|
---0-----0-----2-----4-------------------------------|
---0-----0-----0-----0-------------------------------|
---1-----1-----1-----3-------------------------------|
---0-----0-----0-----0-------------------------------|
Since I met this special lady...

If you have any corrections.
Nyprospect988@tmail.com
Thank you.
Related for Seven Days Acoustic tab