Guitaretab - guitar tabs
Song name
# A B C D E F G H I J K L M N O P Q R S T U V W X Y Z

Craig David - Insomnia Acoustic tab

First.
Capo on 5th Fret.

Intro.

e|-----0~------------------------|
B|-------------3~--0~-0h1-1-1-1--|
G|----2-------0---0---2---2-2-2--| x2
D|---3-------0---2----2---2-2-2--|
A|--3-------2---2-----0----------|
E|-1-------3---0-----------------|


e|----------------0~-----------------------------|
B|--------------------------------------3-3-3-3--|
G|----------2---------------------------0-0-0-0--|
D|-------3------------------------------0-0-0-0--|
A|----3---------------------------------2-2-2-2--|
E|-1------------------------------------3-3-3-3--|
           Never thought...    in love, love, love, love
[ Tab from: http://www.guitaretab.com/c/craig-david/180207.html ]
e|-------------------------------------------------|
B|----------------0~----------------------1-1-1-1--|
G|----------0-----------------------------2-2-2-2--|
D|-------2--------------------------------2-2-2-2--|
A|----2-----------------------------------0-0-0-0--|
E|-0-----------------------------------------------|

           But it grew...    simple crush, crush, crush, crush


e|-----0~--------0-------------------3-----|
B|---------3-3-3---3-----0---0h1-1-1-1-1---|
G|----2----0-0-0--------0-0--2---2-2---2---|
D|---3-----0-0-0-------2-----2---2-2---2---|
A|--3------2-2-2------2------0-------------|
E|-1-------3-3-3-----0---------------------|
Related for Insomnia Acoustic tab
Advertisement will be closed in 10 seconds