Song name
# A B C D E F G H I J K L M N O P Q R S T U V W X Y Z

Craig David - Seven Days tab

e|-2-3p2p0--2p0----------|------------------|----------------2-|
b|---------------3--1p0--|-1---1------0h1-3-|-----3------2h3---|
g|-----------------------|-0----------------|-2----------------|
D|-----------------------|-2----------------|-0----------------|
A|-----------------------|-0----------------|-2----------------|
E|-----------------------|------------------|------------------|

e|-------2-----2----|
b|-------0-----0----|
g|-------0-----0----|
D|-----2------------|
A|------------------|
E|-0-------0--------|





alsje G!!:P
Tap to rate this tab
 
# A B C D E F G H I J K L M N O P Q R S T U V W X Y Z