Song name
# A B C D E F G H I J K L M N O P Q R S T U V W X Y Z

Craig David - Dont Love You No More tab

I watched from live version and it was pretty cool so I write down the intro and a small 
of the main verse down. For the rest of the song you can check out the chord of other 
Enjoy. http://www.youtube.com/watch?v=QZpyWjgalsM

Intro:
E|-----------------------------------------------------------------x-|
B|---------------------------------------------------------------3-x-|
G|-------0-h2-4-2-0-2--------0-h2-4-2-0-2--------0-h2-4-2-0-2----1-x-|
D|-----0-----------------0-4-------------------3-----------------2-x-|
A|---2-----------------2---------------------3---------------------x-|
E|-3---------------------------------------1------------------0----x-|

----------|
---3-0----|
---1-1----|
---2-2----|
--------0-|
-0--------|

Main verse:
E|-------3-------------0-----------1---------x--------|
B|---3------3------3-----3-----1-----1-----3-x---3-0--|
G|-----0------0------2-----2-----2-----2---1-x---1-1--|
D|-----------------------------------------2-x---2-2--|
A|--------------2----------------------------x--------|
E|-3-------------------------1-----------0---x-0------|

the rest is quite easy, just play the chords then you'll be ok
Tap to rate this tab
# A B C D E F G H I J K L M N O P Q R S T U V W X Y Z