Song name
# A B C D E F G H I J K L M N O P Q R S T U V W X Y Z

Craig David - World Filled With Love tab

My very first tab^^, this song is quite easy but cool.
  Intro                                             Dm     Fm
E|-----------------------------------------1---------1-----1------|
B|---------------------------------------1---1-------3-----1------|
G|---0---0---0---0---0---0---0---0-----2-------2-----2-----1------|
D|-----2-------2-------2-------2-----3---------------0-----2------|
A|-3-------2-------0---------------------------------------2------|
E|-------------------------3-------1-----------------------1------|

Verse
E|---------------------------------|
B|---------------------------------|
G|-----------------------0-0-0-----|  X3
D|---0---0---0---0-------0-2-0-----|
A|-----2-------2---0-0-3-------3-2-|
E|-3-------3-----------------------|

E|-------------------------------------|
B|-------------------------------------|
G|-----------------------0-0-0---------|  
D|---0---0---0---0-------0-2-0---------|
A|-----2-------2---0-0-3-----------3h5-|
E|-3-------3-------------------3h5-----|

Pre Chorus
   C    C7   F    Fm
E|-0----0----1----1------|
B|-1----1----1----1------|
G|-0----3----2----1------|
D|-2----2----3----2------|
A|-3----3----3----2------|
E|-0----0----1----1------|

Chorus
   C    C/B  Am   F    C    C/B  Am   F    Fm
E|-0----0----0----1----0----0----0----1----1---|
B|-1----1----1----1----1----1----1----1----1---|
G|-0----0----2----2----0----0----2----2----1---|
D|-2----2----2----3----2----2----2----3----3---|
A|-3----2----0----3----3----2----0----3----3---|
E|-0--------------1----0--------------1----1---|

Music break 
E|-0------0----1----1--|
B|-1h3----0----1----1--|
G|-0------0----2----1--|
D|-2------2----3----3--|
A|-3------3----3----3--|
E|-0------0----1----1--|

This tab I made is based on what I listen from the live version. 
Tap to rate this tab
# A B C D E F G H I J K L M N O P Q R S T U V W X Y Z