Song name
# A B C D E F G H I J K L M N O P Q R S T U V W X Y Z

Craig David - Walking Away tab

Walking away - Craig David
Transcription - Colin Chung 
E-Mail - Colchung@gmail.com


lead in
 -------------|
 -------------|
 ---------0---|
 -----0-2-----|
 -------------|   
 -------------|   Mix up/add to the strumming patterns as you see fit.

  Am                                 Dm7
||----------------------------------|--1-----------1-------1-------0---|
||--1-----------1-------1---1-------|--1-----------1-------1---3-------|
||.-2-----------2-------2---2-------|--2-----------2-------2-----------|
||.-2-----------2-------2---2-------|----------------------------------|
||----------------------------------|----------------------------------|
||----------------------------------|----------------------------------|

 Fmaj7                              G6
|----------------------------------|----------------------------------||
|--3-----------1-------1---1-------|----------------------------------||
|--2-----------2-------2---2-------|------------------------------0--.||
|--3-----------3-------3---3-------|--------------------------0-2----.||
|----------------------------------|--2-----------2-------2-----------||
|----------------------------------|--3-----------3-------3-----------||

Repeat for whole song, easy! The vocal is the hard part.



Chorus:
             Am           Dm7
I'm walking away from the troubles in my life
             Fmaj7     G6
I'm walking away oh to find a better day
             Am           Dm7   
I'm walking away from the troubles in my life
             Fmaj7     G6
I'm walking away oh to find a better day
             Am
I'm walking away


Verse 1:
          Dm7                 Fmaj7 
Sometimes, some people get me wrong
                         G6           Am
When it's something I've said or done
       Dm7                        Fmaj7
Sometimes, you feel there is no fun
               G6         Am
That's why you turn and run
                       Dm7
But now I truly realise 
                                  Fmaj7
Some people don't wanna compromise
                                 G6
Well I saw them with my own eyes spreading those lies
    Am                             Dm7                       Fmaj7
And, well I don't wanna live a lie, too many sleepless nights
                               G6
Not mentioning the fights, I'm sorry to say lady


[Chorus]


Verse 2:

Well I'm so tired baby
Things you say you're driving me away
Whispers in the powder room baby 
Don't listen to the games they play
Girl I thought you'd realise 
I'm not like them other guys
'Cause I saw them with my own eyes
You should've been more wise
And well I don't wanna live a lie, too many sleepless nights
Not mentioning the fights, I'm sorry to say lady


[Chorus] to fade
Tap to rate this tab
# A B C D E F G H I J K L M N O P Q R S T U V W X Y Z