Song name
# A B C D E F G H I J K L M N O P Q R S T U V W X Y Z

Craig Morgan - If I Had My Way tab

If I Had My Way
Vince Gill
CD: When Love Finds You

Tabbed by Neil Crane


Intro:
 A                          D                A                         D
-----------------------------------------------------------------------------------|
-----------------------------------------------------------------------------------|
------9-9h11--------------------------------------9-9h11---------------------------|
-9h11--------11--11h12p11/9-----7-7h9----7/9-9h11--------11-11h12p11/9-----7-7h9---|
----------------------------7h9-------9--------------------------------7h9-------9-|
-----------------------------------------------------------------------------------|

      A
Oh if I had my way
           D
We'd love one another
       A
And if I had my way
            D
We'd all live as brothers

Bm                  E
 There'd be no more fussing and fighting
Bm               E
 No more hungry innocent dying
Bm                   E
 I'd make it all go away
            A(begin break)
If I had my way


break:
 A                          D
----------------------------------------|
----------------------------------------|
------9-9h11----------------------------|
-9h11--------11--11h12p11/9-----7-7h9---|
----------------------------7h9-------9-|
----------------------------------------|

   A
If I had my way
           D
I'd carry your burden
       A
And if I had my way
            D
No one would be hurtin'

Bm                  E
 There'd be no more hatred and lying
Bm              E
 No more lonely little kids crying
Bm                   E
 I'd make it all go away
           A
If I had my way

F#m    E           D
Maybe one day the walls will come down
                                  ---------------|
                                  ---------------|
                                  ---------------|
                                  -----7-7h9p7---|
                                  -7h9---------9-|
                                  ---------------|


F#m       E          D              A
If I had my way the lost would be found
                                    -5/7/5---|
                                    -5/7/5-2-|
                                    -------2-|
                                    ---------|
                                    ---------|
                                    ---------|

 F#m         E           D                        E
Love would find a way to turn everything around


solo:
 A                          D                A                         D            D A  
     Bm
-------------------------------------------------------------------------------------------------|
-------------------------------------------------------------------------------------------------|
------9-9h11--------------------------------------9-9h11-----------------------------------------|
-9h11--------11--11h12p11/9-----7-7h9----7/9-9h11--------11-11h12p11/9-----7-7h9----7-9b11r9-7-9-|
----------------------------7h9-------9--------------------------------7h9-------9---------------|
-------------------------------------------------------------------------------------------------|


Bm                  E
 There'd be no more fussing and fighting
Bm                  E
 No more frightened little kids crying
Bm                   E
 I'd make it all go away
            A
If I had my way


Outro:
 A                          D                A                         D                A
------------------------------------------------------------------------------------------|
------------------------------------------------------------------------------------------|
------9-9h11--------------------------------------9-9h11----------------------------------|
-9h11--------11--11h12p11/9-----7-7h9----7/9-9h11--------11-11h12p11/9-----7-7h9----7b9-7-|
----------------------------7h9-------9--------------------------------7h9-------9--------|
------------------------------------------------------------------------------------------|
Tap to rate this tab
 
# A B C D E F G H I J K L M N O P Q R S T U V W X Y Z