Song name
# A B C D E F G H I J K L M N O P Q R S T U V W X Y Z

Craig Morgan - Thats What I Love About Sundays tab

This is my first tab. I figured I could figure out the intro so here
it is. It might not be perfect, but it's pretty close for my ear.

The "^" denotes a very quick strike on those strings to fill the
gap in sound. Listen to the song on youtube to see what I mean.

The "*" denotes a chord, but slightly modified in the tab.

Capo: 1

E-----3----------------------------------------------------|
B-----3----(3)---------1-/-3----1-/-3-----------------0----|
G-----0-----0------0---2-/-4----2-/-4-----------------0----|
D-----0--------0-2---0------------------2-0-----2----------|
A-----2-------------------------------------2-0------------|
E-----3----------------------------------------------------|
            ^                                         ^

E----------------------------0-----------------------------|
B--------------------------3-1-----------------------------|
G------0---0h2p0---------0---0------0------0----1-/-3------|
D--0-2---0-------2-0-0-2-----2---------0-2---0--2-/-4------|
A----------------------------3-----------------------------|
E----------------------------------------------------------|
                          C Chord   ^

E------------------------------------0---------------------|
B----------------3----3---3---3------3---------------------|
G----7-5-4-2-0---0----0---0---0------2---------------------|
D--------------2-0h2--2---2---2----------------------------|
A----------------0h3--3---3---3----------------------------|
E----------------------------------------------------------|
                      Cadd9*       Dsus2*

Then the song starts. The other tab has the chords mostly correct,
except for during the verses, he doesn't play C. He plays Cadd9.
Tap to rate this tab
# A B C D E F G H I J K L M N O P Q R S T U V W X Y Z