Song name
# A B C D E F G H I J K L M N O P Q R S T U V W X Y Z

Craig Morgan - What I Love About Sundays tab

Help us improve GuitareTab! Take a short survey!
----------------------------------------------------------------------------
	       Craig Morgan - That What I Love About Sundays
----------------------------------------------------------------------------
Tabbed by: Brandon G
Email: terre.gable334@wku.edu
lease Rate!
Tuning: Standard (ebgdaE)from high to low
Capo on 1st fret!
This first part is the organ in the beggining just tabbed out.
e|-----------------------------------|
B|-----------------------------------|
G|-----------------------------------|
D|---2------0------0------0------0---|
A|---3------2------0------0------0---|
E|----------------------------3------|

e|-3-3----------------------------------------------------|
B|-3-3---------1/3--1/3--1--1------0-0--------------------|
G|-0-0-----0---2/4--2/4--2--0------0-0-----0---0h2p0------|
D|-0-0-0h2---2-----------------2-0-2-2-0h2---2------------|
A|-2-2-----------------------------2-2--------------------|
E|-3-3----------------------------------------------------|

e|--------------------------------------------2-2-3p2-----2-|
B|-------------1-1---------1/3--1/3--1--1---1-3-3-----3---3-|
G|-------------0-0-----0---2/4--2/4--2--0---0-2-2-------2-2-|
D|-2-0-2-0---0-2-2-0h2---2----------------2-----------------|
A|---------2---0-0------------------------------------------|
E|----------------------------------------------------------|

Thats pretty much it I think. Enjoy!
/  slide up
h  hammer-on
p  pull-off
============================================================================
Related for What I Love About Sundays tab