Song name
# A B C D E F G H I J K L M N O P Q R S T U V W X Y Z

Craig Owens - No More San Francisco tab

This song is played in Eb tuning, so tune those guitars down a half step!
There is a tab that is VERY close, just really fixing what has been showing.
Things you need to know are barre chords, and basic finger plucking.
Still hurts my hand to play it!

Side note here, Craig plays it a bit weird in the video... He uses his thumb for
the bass notes, which is subtle, but its there. He doesn't use the whole barre,
but I know this is 100% correct, play it and see for yourself.


Chords used

Bm   GMaj     AMaj    DMaj    F#m
|7|   |3|     |5|     |10|    |2|
|9|   |5|     |7|     |12|    |4|
|9|   |5|     |7|     |12|    |4|
|7|   |4|     |6|     |11|    |2|
|7|   |3|     |5|     |10|    |2|
|7|   |3|     |5|     |10|    |2|



Intro
|----------------------------------|------------------------------------|
| ----7-----7-----7-----7-----7----| -----3-----3-----3-----3-----3-----|
| ------7-----7-----7-----7-----7--| -------4-----4-----4-----4-----4---|
|----------------------------------|------------------------------------|
|----------------------------------|------------------------------------|
| --7-----7-----7-----7-----7------| -3-3-----3-----3-----3-----3-------|


|----------------------------------|-----------------------------------|
| ----7-----7-----7-----7-----7----|-----3-----3-----3-----------------|
| ------7-----7-----7-----7-----7--|-------4-----4---------------------|
|----------------------------------|-----------------------------------|
|----------------------------------|-----------------------------------|
| --7-----7-----7-----7-----7------|-3-3-----3-----3-------------------|


Verse
|----------------------------------|------------------------------------|
| ----7-----7-----7-----7-----7----| -----3-----3-----3-----3-----3-----|
| ------7-----7-----7-----7-----7--| -------4-----4-----4-----4-----4---|
|----------------------------------|------------------------------------|
|----------------------------------|------------------------------------|
| --7-----7-----7-----7-----7------| -3-3-----3-----3-----3-----3-------|
I     never  thought    I'd    write    this         song


|----------------------------------|------------------------------------|
| ----7-----7-----7-----7-----7----| -----3-----3-----3-----3-----3-----|
| ------7-----7-----7-----7-----7--| -------4-----4-----4-----4-----4---|
|----------------------------------|------------------------------------|
|----------------------------------|------------------------------------|
| --7-----7-----7-----7-----7------| -3-3-----3-----3-----3-----3-------|
As   I'm        sitting       here    asking what    went    wrong.


Pre chorus
|-----------------------------------|----------------------------------------|
|----5-----5-----5-----5-----5-----|----7-----7-----7-----7-----7-----7------|
|------6-----6-----6-----6-----6---|------7-----7-----7-----7-----7-----7----|
|-----------------------------------|----------------------------------------|
|-----------------------------------|----------------------------------------|
|--5-----5-----5-----5-----5-------|--7-----7-----7-----7-----7-----7--------|
Days  they turn to  weeks we  didn't  speak   All   I   want   was   you   next   to   me

|-----------------------------------|-----------------------------------|
| -----3-----3-----3-----3-----3----| -----3-----3-----3-----3-----3----|
| -------4-----4-----4-----4-----4--| -------4-----4-----4-----4-----4--|
|-----------------------------------|-----------------------------------|
|-----------------------------------|-----------------------------------|
| -3-3-----3-----3-----3-----3------| -3-3-----3-----3-----3-----3------|


|-----------------------------------|----------------------------------------|
|----5-----5-----5-----5-----5-----|----7-----7-----7-----7-----7-----7------|
|------6-----6-----6-----6-----6---|------7-----7-----7-----7-----7-----7----|
|-----------------------------------|----------------------------------------|
|-----------------------------------|----------------------------------------|
|--5-----5-----5-----5-----5-------|--7-----7-----7-----7-----7-----7--------|
Always on my case that I should change      Why am I the one

|-----------------------------------|-----------------------------------|
| -----3-----3-----3-----3-----3----| -----3-----3-----3-----3-----3----|
| -------4-----4-----4-----4-----4--| -------4-----4-----4-----4-----4--|
|-----------------------------------|-----------------------------------|
|-----------------------------------|-----------------------------------|
| -3-3-----3-----3-----3-----3------| -3-3-----3-----3-----3-----3------|
Then It hits me                       Then It hits me


Chorus
|----------------------------------------------------|-----------------------------------|
|-----10-------10-------10-------10-------10--------| ----2-----2-----2-----2-----2------|
|--------12-------12-------12-------12-------12-----| ------2-----2-----2-----2-----2----|
|----------------------------------------------------|-----------------------------------|
|----------------------------------------------------|-----------------------------------|
|--10-------10-------10-------10-------10-----------| --2-----2-----2-----2-----2--------|
Tonight                                       I've          made it very clear

|----------------------------------|------------------------------------|
| ----7-----7-----7-----7-----7----| -----3-----3-----3-----3-----3-----|
| ------7-----7-----7-----7-----7--| -------4-----4-----4-----4-----4---|
|----------------------------------|------------------------------------|
|----------------------------------|------------------------------------|
| --7-----7-----7-----7-----7------| -3-3-----3-----3-----3-----3-------|
That    I     will   never     ever      Let   you   back   in   to   my  life my dear

|----------------------------------------------------|-----------------------------------|
|-----10-------10-------10-------10-------10--------| ----2-----2-----2-----2-----2------|
|--------12-------12-------12-------12-------12-----| ------2-----2-----2-----2-----2----|
|----------------------------------------------------|-----------------------------------|
|----------------------------------------------------|-----------------------------------|
|--10-------10-------10-------10-------10-----------| --2-----2-----2-----2-----2--------|
Cause I'm done                                              I've been pushed and pulled around


|----------------------------------|------------------------------------|
| ----7-----7-----7-----7-----7----| -----3-----3-----3-----3-----3-----|
| ------7-----7-----7-----7-----7--| -------4-----4-----4-----4-----4---|
|----------------------------------|------------------------------------|
|----------------------------------|------------------------------------|
| --7-----7-----7-----7-----7------| -3-3-----3-----3-----3-----3-------|
Our hearts once beat together         Now they're torn apart



Verse 2
|----------------------------------|------------------------------------|
| ----7-----7-----7-----7-----7----| -----3-----3-----3-----3-----3-----|
| ------7-----7-----7-----7-----7--| -------4-----4-----4-----4-----4---|
|----------------------------------|------------------------------------|
|----------------------------------|------------------------------------|
| --7-----7-----7-----7-----7------| -3-3-----3-----3-----3-----3-------|
I wish that love could be enough


|----------------------------------|------------------------------------|
| ----7-----7-----7-----7-----7----| -----3-----3-----3-----3-----3-----|
| ------7-----7-----7-----7-----7--| -------4-----4-----4-----4-----4---|
|----------------------------------|------------------------------------|
|----------------------------------|------------------------------------|
| --7-----7-----7-----7-----7------| -3-3-----3-----3-----3-----3-------|
The      distance        took       its       toll       on     us


Pre chorus
|-----------------------------------|----------------------------------------|
|----5-----5-----5-----5-----5-----|----7-----7-----7-----7-----7-----7------|
|------6-----6-----6-----6-----6---|------7-----7-----7-----7-----7-----7----|
|-----------------------------------|----------------------------------------|
|-----------------------------------|----------------------------------------|
|--5-----5-----5-----5-----5-------|--7-----7-----7-----7-----7-----7--------|
Days  they turn to  weeks we  didn't  speak   All   I   want   was   you   next   to   me

|-----------------------------------|-----------------------------------|
| -----3-----3-----3-----3-----3----| -----3-----3-----3-----3-----3----|
| -------4-----4-----4-----4-----4--| -------4-----4-----4-----4-----4--|
|-----------------------------------|-----------------------------------|
|-----------------------------------|-----------------------------------|
| -3-3-----3-----3-----3-----3------| -3-3-----3-----3-----3-----3------|


|-----------------------------------|----------------------------------------|
|----5-----5-----5-----5-----5-----|----7-----7-----7-----7-----7-----7------|
|------6-----6-----6-----6-----6---|------7-----7-----7-----7-----7-----7----|
|-----------------------------------|----------------------------------------|
|-----------------------------------|----------------------------------------|
|--5-----5-----5-----5-----5-------|--7-----7-----7-----7-----7-----7--------|
Always on my case that I should change      Why am I the one

|-----------------------------------|-----------------------------------|
| -----3-----3-----3-----3-----3----| -----3-----3-----3-----3-----3----|
| -------4-----4-----4-----4-----4--| -------4-----4-----4-----4-----4--|
|-----------------------------------|-----------------------------------|
|-----------------------------------|-----------------------------------|
| -3-3-----3-----3-----3-----3------| -3-3-----3-----3-----3-----3------|
Then It hits me                           Then It hits me


Chorus
|----------------------------------------------------|-----------------------------------|
|-----10-------10-------10-------10-------10--------| ----2-----2-----2-----2-----2------|
|--------12-------12-------12-------12-------12-----| ------2-----2-----2-----2-----2----|
|----------------------------------------------------|-----------------------------------|
|----------------------------------------------------|-----------------------------------|
|--10-------10-------10-------10-------10-----------| --2-----2-----2-----2-----2--------|
Tonight                                          I've          made it very clear

|----------------------------------|------------------------------------|
| ----7-----7-----7-----7-----7----| -----3-----3-----3-----3-----3-----|
| ------7-----7-----7-----7-----7--| -------4-----4-----4-----4-----4---|
|----------------------------------|------------------------------------|
|----------------------------------|------------------------------------|
| --7-----7-----7-----7-----7------| -3-3-----3-----3-----3-----3-------|
That    I     will   never      ever     Let   you   back   in   to   my  life my dear

|----------------------------------------------------|-----------------------------------|
|-----10-------10-------10-------10-------10--------| ----2-----2-----2-----2-----2------|
|--------12-------12-------12-------12-------12-----| ------2-----2-----2-----2-----2----|
|----------------------------------------------------|-----------------------------------|
|----------------------------------------------------|-----------------------------------|
|--10-------10-------10-------10-------10-----------| --2-----2-----2-----2-----2--------|
Cause I'm done                                             I've been pushed and pulled around


|----------------------------------|------------------------------------|
| ----7-----7-----7-----7-----7----| -----3-----3-----3-----3-----3-----|
| ------7-----7-----7-----7-----7--| -------4-----4-----4-----4-----4---|
|----------------------------------|------------------------------------|
|----------------------------------|------------------------------------|
| --7-----7-----7-----7-----7------| -3-3-----3-----3-----3-----3-------|
Our hearts once beat together        Now they're torn apart



|---------------------------------|------------------------------------|
| ----2-----2-----2-----2-----2---| -----3-----3-----3-----3-----3-----|
| ------2-----2-----2-----2-----2-| -------4-----4-----4-----4-----4---|
|---------------------------------|------------------------------------|
|---------------------------------|------------------------------------|
| --2-----2-----2-----2-----2-----| -3-3-----3-----3-----3-----3-------|
So go on pretend          That I'm not


|---------------------------------------------------|------------------------------------|
|-----10-------10-------10-------10-------10-------| ----5-----5-----5-----5-----5-------|
|--------12-------12-------12-------12-------12----| ------6-----6-----6-----6-----6-----|
|---------------------------------------------------|------------------------------------|
|---------------------------------------------------|------------------------------------|
|--10-------10-------10-------10-------10----------| --5-----5-----5-----5-----5---------|
Everything that you want                                    When you're all alone


|---------------------------------|------------------------------------|
| ----2-----2-----2-----2-----2---| -----3-----3-----3-----3-----3-----|
| ------2-----2-----2-----2-----2-| -------4-----4-----4-----4-----4---|
|---------------------------------|------------------------------------|
|---------------------------------|------------------------------------|
| --2-----2-----2-----2-----2-----| -3-3-----3-----3-----3-----3-------|
Do you miss me                        Say you miss me



|---------------------------------------------------|------------------------------------|
|-----10-------10-------10-------10-------10-------| ----5-----5-----5-----5-----5-------|
|--------12-------12-------12-------12-------12----| ------6-----6-----6-----6-----6-----|
|---------------------------------------------------|------------------------------------|
|---------------------------------------------------|------------------------------------|
|--10-------10-------10-------10-------10----------| --5-----5-----5-----5-----5---------|
So I'm not the only one                                        Tell me I'm wrong


|---------------------------------------------------|------------------------------------|
|-----10-------10-------10-------10-------10-------| ----5-----5-----5-----5-----5-------|
|--------12-------12-------12-------12-------12----| ------6-----6-----6-----6-----6-----|
|---------------------------------------------------|------------------------------------|
|---------------------------------------------------|------------------------------------|
|--10-------10-------10-------10-------10----------| --5-----5-----5-----5-----5---------|
Tell me I'm wrong


|----------------------------------|------------------------------------|
| ----7-----7-----7-----7-----7----| -----3-----3-----3-----3-----3-----|
| ------7-----7-----7-----7-----7--| -------4-----4-----4-----4-----4---|
|----------------------------------|------------------------------------|
|----------------------------------|------------------------------------|
| --7-----7-----7-----7-----7------| -3-3-----3-----3-----3-----3-------|
Please tell me I'm wrong                  Tell me I'm wrong



|---------------------------------------------------|------------------------------------|
|-----10-------10-------10-------10-------10-------| ----5-----5-----5-----5-----5-------|
|--------12-------12-------12-------12-------12----| ------6-----6-----6-----6-----6-----|
|---------------------------------------------------|------------------------------------|
|---------------------------------------------------|------------------------------------|
|--10-------10-------10-------10-------10----------| --5-----5-----5-----5-----5---------|
And all the night I                              couldn't sleep weren't worth it

|----------------------------------|------------------------------------|
| ----7-----7-----7-----7-----7----| -----3-----3-----3-----3-----3-----|
| ------7-----7-----7-----7-----7--| -------4-----4-----4-----4-----4---|
|----------------------------------|------------------------------------|
|----------------------------------|------------------------------------|
| --7-----7-----7-----7-----7------| -3-3-----3-----3-----3-----3-------|
                    'Cause       you're       not         worth         it

|------------------------------------|----------------|
| -----3-----3-----3-----3-----3-----|------------3---|
| -------4-----4-----4-----4-----4---|----------4-4---|
|------------------------------------|----------------|
|------------------------------------|----------------|
| -3-3-----3-----3-----3-----3-------|-------3--------|



Thanks to this person here
http://tabs.ultimate-guitar.com/c/craig_owens/no_more_san_francisco_tab.htm
because I used your tab as a base, Good job on the tab, just touched it up and
added lyrics.
All Bumps and kinks worked out. The other version had an extra set of notes for
each barre, took a while to fix, and looks just about perfect to me. FIRST TAB WOO!

Enjoy.
Jacob Gauthier
Tap to rate this tab
# A B C D E F G H I J K L M N O P Q R S T U V W X Y Z