Song name
# A B C D E F G H I J K L M N O P Q R S T U V W X Y Z

Craig Owens - No More San Francisco tab

Tabbed By: Korman7
Email: Danielkorman2@gmail.com
Artist: Craig Owens
Song: No More San Francisco                               

Check out my other tabs!!

Tuning: Standard (EADGBe) 

In the video of this song, Craig doesn't even seem to be playing the right chords 
while he is singing, its weird but the bass notes dont follow with his hand. With 
that being said I think this song is played in half step down but since a lot of 
people dont care to tune their guitar down a half step down i tabbed it in 
standard. I think this is right, if you have any questions/suggestions please 
email me. :D  This song should be finger picked!!! Check out my other tabs!!


                                                                    
 INTRO:

     S S S S S S S S S S S S S S S S    S S S S S S S S S S S S S S S S  
E||----------------------------------|----------------------------------|
B||----6-----6-----6-----6-----6-----|----2-----2-----2-----2-----2-----|
G||------6-----6-----6-----6-----6---|------3-----3-----3-----3-----3---|
D||----------------------------------|----------------------------------|
A||----------------------------------|----------------------------------|
E||--6-----6-----6-----6-----6-----6-|--2-----2-----2-----2-----2-----2-|
 
 
  S S S S S S S S S S S S S S S S    S S S S S S S H        S  
----------------------------------|---------------------------|
----6-----6-----6-----6-----6-----|----2-----2----------------|
------6-----6-----6-----6-----6---|------3-----3---3--------L-|
----------------------------------|--------------4------------|
----------------------------------|---------------------------|
--6-----6-----6-----6-----6-----6-|--2-----2------------------|
 

VERSE: 

    S S S S S S S S S S S S S S S S    S S S S S S S S S S S S S S S S     
|-----------------------------------|------------------------------------||
|-----6-----6-----6-----6-----6-----|----2-----2-----2-----2-----2-------||
|*------6-----6-----6-----6-----6---|------3-----3-----3-----3-----3---*-||
|*----------------------------------|----------------------------------*-||    
|-----------------------------------|------------------------------------||
|---6-----6-----6-----6-----6-----6-|--2-----2-----2-----2-----2-----2---||  Play twice
 


PRE-CHORUS: 

   S S S S S S S S S S S S S S S S    S S S S S S S S S S S S S S S S  
-----------------------------------|----------------------------------|
-----4-----4-----4-----4-----4-----|----6-----6-----6-----6-----6-----|
*------5-----5-----5-----5-----5---|------6-----6-----6-----6-----6---|
*----------------------------------|----------------------------------|
-----------------------------------|----------------------------------|
---4-----4-----4-----4-----4-----4-|--6-----6-----6-----6-----6-----6-|
 
  S S S S S S S S S S S S S S S S    S S S S S S S S S S S S S S S S     
----------------------------------|------------------------------------||
----2-----2-----2-----2-----2-----|----2-----2-----2-----2-----2-------||
------3-----3-----3-----3-----3---|------3-----3-----3-----3-----3---*-||
----------------------------------|----------------------------------*-||
----------------------------------|------------------------------------||
--2-----2-----2-----2-----2-----2-|--2-----2-----2-----2-----2-----2---|| Play Twice
 

 
CHORUS:

   S S  S S S  S S S  S S S  S S S  S S    S S S S S S S S S S S S S S S S  
----------------------------------------|----------------------------------|
-----9------9------9------9------9------|----4-----4-----4-----4-----4-----|
*------10-----10-----10-----10-----10---|------5-----5-----5-----5-----5---|
*---------------------------------------|----------------------------------|
----------------------------------------|----------------------------------|
---9------9------9------9------9------9-|--4-----4-----4-----4-----4-----4-|
 
 
  S S S S S S S S S S S S S S S S    S S S S S S S S S S S S S S S S     
----------------------------------|------------------------------------||
----6-----6-----6-----6-----6-----|----2-----2-----2-----2-----2-------||
------6-----6-----6-----6-----6---|------3-----3-----3-----3-----3---*-||
----------------------------------|----------------------------------*-||
----------------------------------|------------------------------------||
--6-----6-----6-----6-----6-----6-|--2-----2-----2-----2-----2-----2---|| Play twice
 


 
INTRO AND VERSE :

   S S S S S S S S S S S S S S S S    S S S S S S S S S S S S S S S S  4x 
-----------------------------------|------------------------------------||
-----6-----6-----6-----6-----6-----|----2-----2-----2-----2-----2-------||
*------6-----6-----6-----6-----6---|------3-----3-----3-----3-----3---*-||
*----------------------------------|----------------------------------*-||
-----------------------------------|------------------------------------||
---6-----6-----6-----6-----6-----6-|--2-----2-----2-----2-----2-----2---|| Play four times
 
 

PRE-CHROUS:

   S S S S S S S S S S S S S S S S    S S S S S S S S S S S S S S S S  
-----------------------------------|----------------------------------|
-----4-----4-----4-----4-----4-----|----6-----6-----6-----6-----6-----|
*------5-----5-----5-----5-----5---|------6-----6-----6-----6-----6---|
*----------------------------------|----------------------------------|
-----------------------------------|----------------------------------|
---4-----4-----4-----4-----4-----4-|--6-----6-----6-----6-----6-----6-|  
 
 
  S S S S S S S S S S S S S S S S    S S S S S S S S S S S S S S S S     
----------------------------------|------------------------------------||
----2-----2-----2-----2-----2-----|----2-----2-----2-----2-----2-------||
------3-----3-----3-----3-----3---|------3-----3-----3-----3-----3---*-||
----------------------------------|----------------------------------*-||
----------------------------------|------------------------------------||
--2-----2-----2-----2-----2-----2-|--2-----2-----2-----2-----2-----2---||   Play twice
 


 
CHORUS:

   S S  S S S  S S S  S S S  S S S  S S    S S S S S S S S S S S S S S S S  
----------------------------------------|----------------------------------|
-----9------9------9------9------9------|----4-----4-----4-----4-----4-----|
*------10-----10-----10-----10-----10---|------5-----5-----5-----5-----5---|
*---------------------------------------|----------------------------------|
----------------------------------------|----------------------------------|
---9------9------9------9------9------9-|--4-----4-----4-----4-----4-----4-|  
 
 
  S S S S S S S S S S S S S S S S    S S S S S S S S S S S S S S S S     
----------------------------------|------------------------------------||
----6-----6-----6-----6-----6-----|----2-----2-----2-----2-----2-------||
------6-----6-----6-----6-----6---|------3-----3-----3-----3-----3---*-||
----------------------------------|----------------------------------*-||
----------------------------------|------------------------------------||
--6-----6-----6-----6-----6-----6-|--2-----2-----2-----2-----2-----2---||  Play twice
 


 
BRIDGE:

   S S S S S S S S S S S S S S S S    S S S S S S S S S S S S S S S S  
-----------------------------------|----------------------------------|
-----1-----1-----1-----1-----1-----|----2-----2-----2-----2-----2-----|
*------1-----1-----1-----1-----1---|------3-----3-----3-----3-----3---|
*----------------------------------|----------------------------------|
-----------------------------------|----------------------------------|
---1-----1-----1-----1-----1-----1-|--2-----2-----2-----2-----2-----2-|
 
 
  S S  S S S  S S S  S S S  S S S  S S    S S S S S S S S S S S S S S S S     
---------------------------------------|------------------------------------||
----9------9------9------9------9------|----4-----4-----4-----4-----4-------||
------10-----10-----10-----10-----10---|------5-----5-----5-----5-----5---*-||
---------------------------------------|----------------------------------*-||
---------------------------------------|------------------------------------||
--9------9------9------9------9------9-|--4-----4-----4-----4-----4-----4---||Play Twice
 


OUTRO:
 
    S S  S S S  S S S  S S S  S S S  S S    S S  S S S  S S S  S S S  S S S  S S  
----------------------------------------|---------------------------------------|
-----9------9------9------9------9------|----9------9------9------9------9------|
*------10-----10-----10-----10-----10---|------10-----10-----10-----10-----10---|
*---------------------------------------|---------------------------------------|
----------------------------------------|---------------------------------------|
---9------9------9------9------9------9-|--8------8------8------8------8------8-|
 
 
   S S S S S S S S S S S S S S S S    S S S S S S S S S S S S S S S S     
----------------------------------|------------------------------------||
----6-----6-----6-----6-----6-----|----2-----2-----2-----2-----2-------||
------6-----6-----6-----6-----6---|------3-----3-----3-----3-----3---*-||
----------------------------------|----------------------------------*-||
----------------------------------|------------------------------------||
--6-----6-----6-----6-----6-----6-|--2-----2-----2-----2-----2-----2---|| Play Twice
 
 

LAST BAR:

  S S S S S S S S S S S S S S S S                            
--------------------------------L-|
----2-----2-----2-----2---------2-|
------3-----3-----3-----3-------3-|
----------------------------------|
----------------------------------|
--2-----2-----2-----2-----2-------|
 

 
 
Duration Legend
---------------
W - whole
H - half
Q - quarter
E - 8th
S - 16th
T - 32nd
X - 64th
. - note dotted
|-n-|  - n-tuplets
 
 
Tablature Legend
----------------
L - tied note
Tap to rate this tab
# A B C D E F G H I J K L M N O P Q R S T U V W X Y Z