Song name
# A B C D E F G H I J K L M N O P Q R S T U V W X Y Z

Craig Owens - No More San Francisco tab

First tab. First time learning by ear. Hopefully everything is right!

Verse

|--------------------------------------|--------------------------------------|
|----7-----7-----7-----7-----7-----7---|----3-----3-----3-----3-----3-----3---|
|------7-----7-----7-----7-----7-----7-|------4-----4-----4-----4-----4-----4-|  x4
|--------------------------------------|--------------------------------------|
|--------------------------------------|--------------------------------------|
|--7-----7-----7-----7-----7-----7-----|--3-----3-----3-----3-----3-----3-----|

Pre Chorus

|--------------------------------------|--------------------------------------|
|----5-----5-----5-----5-----5-----5---|----7-----7-----7-----7-----7-----7---|
|------6-----6-----6-----6-----6-----6-|------7-----7-----7-----7-----7-----7-|
|--------------------------------------|--------------------------------------|
|--------------------------------------|--------------------------------------|
|--5-----5-----5-----5-----5-----5-----|--7-----7-----7-----7-----7-----7-----|

|--------------------------------------|--------------------------------------|
|----3-----3-----3-----3-----3-----3---|----3-----3-----3-----3-----3-----3---|
|------4-----4-----4-----4-----4-----4-|------4-----4-----4-----4-----4-----4-|
|--------------------------------------|--------------------------------------|  x2
|--------------------------------------|--------------------------------------|
|--3-----3-----3-----3-----3-----3-----|--3-----3-----3-----3-----3-----3-----

Chorus

|--------------------------------------------------------|--------------------------------------|
|-----10-------10-------10-------10-------10-------10----|----2-----2-----2-----2-----2----2----|
|--------------------------------------------------------|------2-----2-----2-----2-----2----2--|
|--------12-------12-------12-------12-------12-------12-|--------------------------------------|
|--------------------------------------------------------|--------------------------------------|
|--10-------10-------10-------10-------10-------10-------|--2-----2-----2-----2-----2-----2-----|

|--------------------------------------|--------------------------------------|
|----7-----7-----7-----7-----7-----7---|----3-----3-----3-----3-----3-----3---|
|------7-----7-----7-----7-----7-----7-|------4-----4-----4-----4-----4-----4-|
|--------------------------------------|--------------------------------------|  x2
|--------------------------------------|--------------------------------------|
|--7-----7-----7-----7-----7-----7-----|--3-----3-----3-----3-----3-----3-----|

Bridge
|--------------------------------------|--------------------------------------|
|----2-----2-----2-----2-----2-----2---|----3-----3-----3-----3-----3-----3---|
|------2-----2-----2-----2-----2-----2-|------4-----4-----4-----4-----4-----4-|
|--------------------------------------|--------------------------------------|
|--------------------------------------|--------------------------------------|
|--2-----2-----2-----2-----2-----2-----|--3-----3-----3-----3-----3-----3-----|


|--------------------------------------------------------|--------------------------------------|
|-----10-------10-------10-------10-------10-------10----|----5-----5-----5-----5-----5----5----|
|--------------------------------------------------------|------6-----6-----6-----6-----6----6--|
|--------12-------12-------12-------12-------12-------12-|--------------------------------------|x2
|--------------------------------------------------------|--------------------------------------| 
|--10-------10-------10-------10-------10-------10-------|--5-----5-----5-----5-----5-----5-----|

|--------------------------------------------------------|
|-----10-------10-------10-------10-------10-------10----|
|--------------------------------------------------------|
|--------12-------12-------12-------12-------12-------12-|
|--------------------------------------------------------|
|--10-------10-------10-------10-------10-------10-------|

|--------------------------------------------------|-------------------------------------|
|----10------10------10------10------10------10----|----7-----7-----7-----7-----7-----7--|
|--------------------------------------------------|------7-----7-----7-----7-----7-----7|
|-------12------12------12------12------12------12-|-------------------------------------|
|--------------------------------------------------|-------------------------------------|
|--9-------9-------9-------9-------9-------9-------|--7-----7-----7-----7-----7-----7----|


|--------------------------------------|--------------------------------------|
|----3-----3-----3-----3-----3-----3---|----3-----3-----3-----3-----3-----3---|
|------4-----4-----4-----4-----4-----4-|------4-----4-----4-----4-----4-----4-|
|--------------------------------------|--------------------------------------|  
|--------------------------------------|--------------------------------------|
|--3-----3-----3-----3-----3-----3-----|--3-----3-----3-----3-----3-----3-----|



Order:
Verse
Pre Chorus
Chorus
Verse
Chorus
Bridge
Tap to rate this tab
# A B C D E F G H I J K L M N O P Q R S T U V W X Y Z