Song name
# A B C D E F G H I J K L M N O P Q R S T U V W X Y Z

Cramps - I Was E Teenage Werewolf tab

Help us improve GuitareTab! Take a short survey!
The Cramps  I Was a Teenage Werewolf

Album: Song the Lord Taught Us

In this song there are
Intro, 0:00 - 0:30

|--3--3--0------0------------|--3--3--0-----0-------------|
|-----------3---0------------|-----------3--0-------------|
|---------------1------------|--------------1-------------|
|---------------2------------|--------------2-------------|
|---------------2------------|--------------2-------------|
|---------------0------------|--------------0-------------|

|--3--3--0------3------------|--3--3--0-----0-------------|
|-----------3---2------------|-----------3--0-------------|
|---------------2------------|--------------1-------------|
|---------------2------------|--------------2-------------|
|---------------0------------|--------------2-------------|
|---------------0------------|--------------0-------------|

|--3--3--0------2~-----------|--3--0----------------------|
|-----------3---4~-----------|-------3--0-----------------|
|---------------4~-----------|-------------3-2-0----------|
|---------------4~-----------|--------------------2-0-2~--|
|---------------2~-----------|----------------------------|
|---------------2~-----------|----------------------------|

Verse 1, 0:28-0:56

|---------------0~-----------|---------------0~-----------|
|---------------0~-----------|---------------0~-----------|
|---------------1~-----------|---------------1~-----------|
|---------------2~-----------|---------------2~-----------|
|---------------2~-----------|---------------2~-----------|
|--3--3--0--3---0~-----------|--3--30-3----0~-----------|

|---------------0~-----------|---------------0~-----------|
|---------------2~-----------|---------------0~-----------|
|---------------2~-----------|---------------1~-----------|
|---------------2~-----------|---------------2~-----------|
|---------------0~-----------|---------------2~-----------|
|--3--3--0--3---0~-----------|--3--30-3----0~-----------|

|---------------2~-----------|--3--0----------------------|
|---------------4~-----------|-------3--0-----------------|
|---------------4~-----------|-------------3-2-0----------|
|---------------4~-----------|--------------------2-0-2~--|
|---------------2~-----------|----------------------------|
|--3--3--0--3---2~-----------|----------------------------|

Verse 3, 0:56-1:20

Here are the sections of Intro and Verse 1 played together (so there are at least 2 
at that moment, plus one for the feedback guitar.


Solo introduction 1:46-1:56
At 1:46, where they introduce the solo, just hammer like a geek on the E chord. Like this:

|---------------0-0-0-0-0-0--|--0-0-0-0-0-0---------------|
|---------------0-0-0-0-0-0--|--0-0-0-0-0-0---------------|
|---------------1-1-1-1-1-1--|--1-1-1-1-1-1---------------|
|---------------2-2-2-2-2-2--|--2-2-2-2-2-2---------------|
|---------------2-2-2-2-2-2--|--2-2-2-2-2-2---------------|
|--3--3-0-3---0-0-0-0-0-0--|--0-0-0-0-0-0---------------|

|--0-0-0-0-0-0-0-0-0-0-------|--0-0-0-0-0-0-0-0-0-0-------|
|--0-0-0-0-0-0-0-0-0-0-------|--3-3-3-3-3-3-3-3-3-3-------|
|--1-1-1-1-1-1-1-1-1-1-------|--1-1-1-1-1-1-1-1-1-1-------|
|--2-2-2-2-2-2-2-2-2-2-------|--2-2-2-2-2-2-2-2-2-2-------|
|--2-2-2-2-2-2-2-2-2-2-------|--2-2-2-2-2-2-2-2-2-2-------|
|--0-0-0-0-0-0-0-0-0-0-------|--0-0-0-0-0-0-0-0-0-0-------|


Then the chord A:

|--3-3-3-3-3-3-3-3-3-3--------|--0-0-0-0-0-0-0-0-0-0--------|
|--2-2-2-2-2-2-2-2-2-2--------|--0-0-0-0-0-0-0-0-0-0--------|
|--2-2-2-2-2-2-2-2-2-2--------|--1-1-1-1-1-1-1-1-1-1--------|
|--2-2-2-2-2-2-2-2-2-2--------|--2-2-2-2-2-2-2-2-2-2--------|
|--0-0-0-0-0-0-0-0-0-0--------|--2-2-2-2-2-2-2-2-2-2--------|
|--0-0-0-0-0-0-0-0-0-0--------|--0-0-0-0-0-0-0-0-0-0--------|

|--2-2-2-2-2-2-2-2-2-2--------|--0-0-0-0-0-0-0-0-0-0--------|
|--4-4-4-4-4-4-4-4-4-4--------|--2-2-2-2-2-2-2-2-2-2--------|
|--4-4-4-4-4-4-4-4-4-4--------|--2-2-2-2-2-2-2-2-2-2--------|
|--4-4-4-4-4-4-4-4-4-4--------|--2-2-2-2-2-2-2-2-2-2--------|
|--2-2-2-2-2-2-2-2-2-2--------|--0-0-0-0-0-0-0-0-0-0--------|
|--2-2-2-2-2-2-2-2-2-2--------|--0-0-0-0-0-0-0-0-0-0--------|

|--0-0-0-0-0-0-0-0-0-0--------|--0-0-0-0-0-0-0-0-0-0--------|
|--0-0-0-0-0-0-0-0-0-0--------|--0-0-0-0-0-0-0-0-0-0--------|
|--1-1-1-1-1-1-1-1-1-1--------|--1-1-1-1-1-1-1-1-1-1--------|
|--2-2-2-2-2-2-2-2-2-2--------|--2-2-2-2-2-2-2-2-2-2--------|
|--2-2-2-2-2-2-2-2-2-2--------|--2-2-2-2-2-2-2-2-2-2--------|
|--0-0-0-0-0-0-0-0-0-0--------|--0-0-0-0-0-0-0-0-0-0--------|

Verse 3:

Back to section Verse 2

BEWARE:
Some live versions of this song by the Cramps are played a semi-note higher (so in the 
of F instead of the studio-version-E). The chords would be E -> F, B -> Bb and B -> C.
You can choose between these three options, if you wanna play the live version:
1.	Play it in the key of F (with chords F, Bb and C). The single notes would be a 
bit harder because the 0-notes become 1-notes, which will ask more action by your fingers.
2. Use a capo, set it on the 1st fret, and play the studio-version.
3. Tune your guitar-strings up one semi-tone (be careful, there is more pressure on the 
so they break much easier), and play the studio-version.
Related for I Was E Teenage Werewolf tab