Song name
# A B C D E F G H I J K L M N O P Q R S T U V W X Y Z

Cramps - Love Me tab

THE CRAMPS
Love Me

E------------------------|
B------------------------|
G------------------------|
D-2-2---2-2---2-2-----2--|
A-2-2---2-2---2-2-----2--|
E-0-3p0-0-3p0-0-3p0-0-3p0|

E-------------------------|
B-------------------------|
G-------------------------|
D-2-0---------------------|
A-----3-2-0-------2-0-----|
E-----------3-2-0-----3-2-|


CHORUS:

Don't hesitate ...   ...wait

E--------------------0-------------|
B-2-2-2-2-2-2-2-2----0-------------|
G-2-2-2-2-2-2-2-2----1-------------|
D-2-2-2-2-2-2-2-2----2-------------|
A-0-0-0-0-0-0-0-0----2-------------|
E--------------------0-------------|

E---------------------------|
B---------2-2-2-2-2-2-2-2---|
G---------2-2-2-2-2-2-2-2---|
D---------2-2-2-2-2-2-2-2---|
A-------0-0-0-0-0-0-0-0-0---|
E-0-2-4---------------------|
Tap to rate this tab
 
# A B C D E F G H I J K L M N O P Q R S T U V W X Y Z