Song name
# A B C D E F G H I J K L M N O P Q R S T U V W X Y Z

Cramps - Zombie Dance tab

-------------------------------------------------------------------------------
			     Zombie Dance - The Cramps
-------------------------------------------------------------------------------
Tabbed by: Colin Pecolatto

Tuning: Standard

Intro/verse
e|-------------|
B|-------------|
G|7/--9-9-9-9-9|
D|7/--9-9-9-9-9|
A|5/--7-7-7-7-7|
E|0/--0-0-0-0-0|
Chorus
e|----------------------------------------------------------------|
B|----------------------------------------------------------------|
G|------------------------------------------------------7/-9-9-9-9|
D|7-7-5-2-2-2-2-2-2---5-5-5-5-5-5-5-5-5-2-2-2-2-2-2-2-2-7/-9-9-9-9|
A|7-7-5-2-2-2-2-2-2---5-5-5-5-5-5-5-5-5-2-2-2-2-2-2-2-2-5/-7-7-7-7|
E|5-5-3-0-0-0-0-0-0---3-3-3-3-3-3-3-3-3-0-0-0-0-0-0-0-0-0/-0-0-0-0|

e|--------------------------------------------------------------------|
B|--------------------------------------------------------------------|
G|-----------------------------------8-7-5--8-7-5-5-5-----------------|
D|8-7-5--8-7-5-5-5--8-7-5--8-7-5-5-5-8-7-5--8-7-5-5-5-8-7-5--8-7-5-5-5|
A|8-7-5--8-7-5-5-5--8-7-5--8-7-5-5-5-6-5-3--6-5-3-3-3-8-7-5--8-7-5-5-5|
E|6-5-3--6-5-3-3-3--6-5-3--6-5-3-3-3------------------6-5-3--6-5-3-3-3|

e|---------------------|
B|---------------------|
G|(9)--9-(7)-7/-9-9-9-9|
D|(9)--9-(7)-7/-9-9-9-9|
A|(7)--7-(5)-5/-7-7-7-7|
E|(0)--0-(0)-0/-0-0-0-0|


| /  slide up
| \  slide down
| h  hammer-on
| p  pull-off
| ~  vibrato
| +  harmonic
| x  Mute note
===============================================================================
Tap to rate this tab
# A B C D E F G H I J K L M N O P Q R S T U V W X Y Z