Song name
# A B C D E F G H I J K L M N O P Q R S T U V W X Y Z

Cramps - The Most Exalted Potentate Of Love tab

play with high distortion guitar

intro

|--------------------------------------------------------------------|
|----2-3-5--3-2-----2------------------------------------------------|
|----2-3--------3-3---3-2--------------------------------------------|
|--------------------------------------------------------------------|
|--------------------------------------------------------------------|
|--------------------------------------------------------------------|

main riff

|------------------------------------------------------------------------|
|------------------------------------------------------------------------|
|------------------------------------------------------------------------|
|------------------------------------------------------------------------|
|---0-7-5-3-07-7-5-3-----------------------------------------------------|
|------------------------------------------------------------------------|

also go down a string and up a string from there.

intro repeat

|----------------------------------------4-5-6-5-4-5------------------------|
|----   2-3-5--3-2-----2---------2-3-5-6------------------------------------|
|----2-3--------- -3-3---3-2--2-3-------------------------------------------|
|---------------------------------------------------------------------------|
|---------------------------------------------------------------------------|
|---------------------------------------------------------------------------|
rythm guitar(high distortion
|-----------------------------------------------------------|
|-----------------------------------------------------------|
|--------------------------------2---------2----------------|
|--2--------------2--------------2---------2----------------|
|--2--------------2--------------0---------0----------------|
|--0--------------0-----------------------------------------|
Tap to rate this tab
 
# A B C D E F G H I J K L M N O P Q R S T U V W X Y Z