Song name
# A B C D E F G H I J K L M N O P Q R S T U V W X Y Z

Cramps - Way I Walk tab

The Cramps, The Way I Walk
Originally by Jack Scott
Tabbed by; Im_Cramped


Verse

   G  E                     G  E

e|-33-00-00-00-00-00-00-0---33-00-00-00-00-00-00-0--------------------------|
B|-00-00-00-00-00-00-00-0---00-00-00-00-00-00-00-0--------------------------|
G|-00-22-22-22-22-22-22-2---00-22-22-22-22-22-22-2--------------------------|
D|-00-22-22-22-22-22-22-2---00-22-22-22-22-22-22-2--------------------------|
A|-22-11-11-11-11-11-11-1---22-11-11-11-11-11-11-1--------------------------|
E|-33-00-00-00-00-00-00-0---33-00-00-00-00-00-00-0--------------------------|

   E  A                     A  B

e|-00-00-00-00-00-00-00-0---00-00-00-00-00-00-00-0--------------------------|
B|-00-22-22-22-22-22-22-2---22-00-00-00-00-00-00-0--------------------------|
G|-22-22-22-22-22-22-22-2---22-44-44-44-44-44-44-4--------------------------|
D|-22-22-22-22-22-22-22-2---22-44-44-44-44-44-44-4--------------------------|
A|-11-00-00-00-00-00-00-0---00-22-22-22-22-22-22-2---2-2--------------------|
E|-00-00-00-00-00-00-00-0---00-00-00-00-00-00-00-0-------5-5-3-3-0----------|


Although this song is fairly easy to play, there's a bit of
technique involved, try to strum the first G chord up the first time
and then down the second, do the same with the E. And at the end of each bar,
just rest your right hand against the strings to mute them.


12 Bar Blues Solo

e|--------------------------------------------------------------------------|
B|--------------------------------------------------------------------------|
G|--------------------------------------------------------------------------|
D|--------------------------------------------------------------------------|
A|---------2-2-4-2---------2-2-4-2---------2-2-4-2---------2-2-4-2----------|
E|-0-0-4-4---------0-0-4-4---------0-0-4-4---------0-0-4-4------------------|

e|--------------------------------------------------------------------------|
B|--------------------------------------------------------------------------|
G|--------------------------------------------------------------------------|
D|---------2-2-4-2---------2-2-4-2------------------------------------------|
A|-0-0-4-4---------0-0-4-4---------222222-----------------------------------|
E|----------------------------------------5-5-3-3-0-------------------------|


Poison Ivy's Solo

e|--------------------------------------------------------------------------|
B|--------------------------------------------------------------------------|
G|-------------------------9-9-7-7------------------------------------------|
D|--------------------------------9-9-7-7-----------------------------------|
A|-67-67-67-67-67-67-67-67----------------10-6-7----------------------------|
E|-----------------------------------------------7-77-----------------------|

e|--------------------------------------------------------------------------|
B|--------------------------------------------------------------------------|
G|--------------------------------------------------------------------------|
D|---2-4-4/5-5-5-4-----2-4-4/5-5-5-4----------------------------------------|
A|-2-----------------2---------------222222---------------------------------|
E|------------------------------------------5-5-3-3-0-----------------------|


Outro

   G  E  (let E ring)

e|-33-00--------------------------------------------------------------------|
B|-00-00--------------------------------------------------------------------|
G|-00-22--------------------------------------------------------------------|
D|-00-22--------------------------------------------------------------------|
A|-22-11--------------------------------------------------------------------|
E|-33-00--------------------------------------------------------------------|

Song Order,

Verse                 X 2
12 Bar Blues Solo     X 1
Verse                 X 2
Poison Ivy's Solo     X 1
Verse                 X 1
12 Bar Blues Solo     X 1
Outro                 X 1
Tap to rate this tab
# A B C D E F G H I J K L M N O P Q R S T U V W X Y Z