Song name
# A B C D E F G H I J K L M N O P Q R S T U V W X Y Z

Cramps - Sunglasses After Dark tab

----------------------------------------------------------------------------
			     Sunglasses After Dark - The Cramps
----------------------------------------------------------------------------
Tabbed by: L.A.M.F. 77'
Email:

Tuning:Standard

Intro Riff:
      G    A    E      G    A    B      G    A    B
e|----3----5----0------3----5----7------3----5----7------------------------|
B|----3----5----0------3----5----7------3----5----7------------------------|
G|----4----6----1------4----6----8------4----6----8------------------------|
D|----5----7----2------5----7----9------5----7----9------------------------|
A|----5----7----2------5----7----9------5----7----9------------------------|
E|----3----5----0------3----5----7------3----5----7------------------------|

e|----14--14--12----14--14--12----14--14--12----14--14--12----12--10--10---|
B|-------------------------------------------------------------------------|
G|-------------------------------------------------------------------------|
D|-------------------------------------------------------------------------|
A|-------------------------------------------------------------------------|
E|-------------------------------------------------------------------------|
                                                B        G    A    B
e|----12--10--10----12--10--10----12--10--10----7--------3----5----7-------|
B|----------------------------------------------7--------3----5----7-------|
G|----------------------------------------------8--------4----6----8-------|
D|----------------------------------------------9--------5----7----9-------|
A|----------------------------------------------9--------5----7----9-------|
E|----------------------------------------------7--------3----5----7-------|
      G    A    B      B    E    B    E
e|----3----5----7------7----7----7----7----14--14--12----14--14--12--------|
B|----3----5----7------7----9----7----9------------------------------------|
G|----4----6----8------8----9----8----9------------------------------------|
D|----5----7----9------9----9----9----9------------------------------------|
A|----5----7----9------9----7----9----7------------------------------------|
E|----3----5----7------7---------7-----------------------------------------|

e|----14--14--12---14--14--12---12--12--10---12--12--10--12-12-10-12-------|
B|-------------------------------------------------------------------------|
G|-------------------------------------------------------------------------|
D|-------------------------------------------------------------------------|
A|-------------------------------------------------------------------------|
E|-------------------------------------------------------------------------|
      B      G    A    B      G    A    E
e|----7------3----5----7------3----5----0----------------------------------|
B|----7------3----5----7------3----5----0----------------------------------|
G|----8------4----6----8------4----6----1----------------------------------|
D|----9------5----7----9------5----7----2----------------------------------|
A|----9------5----7----9------5----7----2----------------------------------|
E|----7------3----5----7------3----5----0----------------------------------|

That's all you need to know to play this song...Just listen for what chords you're 
to play during what part of the song.

| /  slide up
| \  slide down
| h  hammer-on
| p  pull-off
| ~  vibrato
| +  harmonic
| x  Mute note
============================================================================
Tap to rate this tab
# A B C D E F G H I J K L M N O P Q R S T U V W X Y Z