Song name
# A B C D E F G H I J K L M N O P Q R S T U V W X Y Z

Cramps - New Kind Of Kick tab

this song is very easy and fun 2 sing with

e----------------------------------------------------------------------------|
b----------------------------------------------------------------------------|
g----------------------------------------------------------------------------|
d----------------------------------------------------------------------------|
a----4-2-2--2-4------4-2-2-2-4-----------------------------------------------|
e----2-0-0--0-2------2-0-0-0-2-----------------------------------------------|
do this untill the coures


the coures is this
e------------------      ----------------------|
g-----------------       ----------------------|
d---4-----4--4--4- 3x    ----------------------|
a---o-----2--2--2-       ----4-----------------| then this
e-----------------       ----2-----------------|

the second coures
e-----------------   --------------------------------------------|
g-----------------   --------------------------------------------|
d---4-----4-4-4---3x ----4---6-----------------------------------|
a---0-----2-2-2---   ----2---4-----------------------------------|
e-----------------   --------------------------------------------|

then the solo is most likely scrapin the strings with a rake with a couple random notes


----------ftfb---------seb-----------fttb------------------|
----6b---------------tfb----------------seb----------------|
---tb--------43b------------uytb-----seb-------------------|
--------443b------------------------tfdrs-b----------------|
--76b------------98b------tbf----------tftb----------------|
----666b--------------------------tftb---------8b----------|
the back round gutair is the 1st part but faster

plz!!!!!!!!!!!!!! add more cramps songs like garbageman and all there other awsome 
songs the cramps rule go satan!
Tap to rate this tab
 
# A B C D E F G H I J K L M N O P Q R S T U V W X Y Z