Song name
# A B C D E F G H I J K L M N O P Q R S T U V W X Y Z

Cramps - Like A Bad Girl Should tab

Like A Bad Girl Should

E--------------------------|
B--------------------------|
G--------------------------|
D--------------------------|    ok this time il say it  um play it
A--------------------------|               2x k got me
E--5-5-55-3-0-3------------|

E-----------------------------|
B-----------------------------|
G-----------------------------|  4x
D--7-7-77--5-0-5--------------|
A--7-7-77--5-0-5--------------|
E--5-5-55--3-0-3--------------|

         the let

E-----------|
B-----------|
G-----------|             let it Ring bitch or you'll kill the song...
D--7--------|    1x                for
A--7--------|
E--5--------|


E-----------|
B-----------|
G-----------|     2x then at the 3rd on dont let it ring got that...
D--5-5-5--7-|
A--5-5-5--7-|
E--3-3-3--5-|

E---------------------------------------------------|
B---------------------------------------------------|
G--7-7-77-5-0-5-------------------------------------|   4x
D--7-7-77-5-0-5-----7-7-77-5-0-5--------------------|
A--5-5-55-3-0-3-----7-7-77-5-0-5--------------------|
E-------------------5-5-55-3-0-3--------------------|


E-----------|
B-----------|
G-----------|
D--7--------| right away stop the strings
A--7--------|
E--5--------|

 then the song keep on repeting um also dont got the solo so make one up k

xgotohellslipknotdevil666@yahoo.com
Email me and Rate me
Tap to rate this tab
# A B C D E F G H I J K L M N O P Q R S T U V W X Y Z