Song name
# A B C D E F G H I J K L M N O P Q R S T U V W X Y Z

Cranberries - Electric Blue tab

Submitted by Mikhailo (mikhailo_@mail.ru)

Artist : Cranberries
Song   : Electric Blue


Intro:

e-032-0----|0---20|0-----|------|
B----3-0310|-3-3--|-3-310|0-0---|
G----------|------|------|---20-|
D----------|------|------|-----2|
A----------|------|------|------|
E----------|------|------|------|

e--------|-------|-------|--------|
B---0---0|-------|-------|--------|
G-----0--|----0--|----0--|-----0--|
D-2------|0-4---4|--4----|-------4|
A--------|-------|3-----2|---2----|
E--------|-------|-------|--------|

Repeat riff throughout entire song.
Tap to rate this tab
# A B C D E F G H I J K L M N O P Q R S T U V W X Y Z