Song name
# A B C D E F G H I J K L M N O P Q R S T U V W X Y Z

Cranberries - Carry On tab

Help us improve GuitareTab! Take a short survey!
CARRY ON - The Cranberries

CHORDS are:
Verse -> Bm - D - G - D
Chorus -> Bm - D - G - D - A

Instrumental part: like verse

VERSE:
------
   Bm          D           G           D
E--------2-----------2-----------3-----------2------------|
B------3---3-------3---3-------3---3-------3---3----------|
G----4-------4---2-------2---0-------0---2-------2--------|
D--4-----------0-----------0-----------0------------------|
  A-------------------------------------------------------|
E---------------------------------------------------------|
   I didnt understand the things youre going through

(repeat...)

CHORUS:
-------
   Bm          D           G           D
E--------2-----------2-----------3-----------2---------|
B------3---3-------3---3-------3---3-------3---3-------|
G----4-------4---2-------2---0-------0---2-------2-----|
D--4-----------0-----------0-----------0---------------|
A------------------------------------------------------|
E------------------------------------------------------|
   Carry on, carry on The sun will always shine

   Bm          D           G           D
E--------2-----------2-----------3-----------2---------|
B------3---3-------3---3-------3---3-------3---3-------|
G----4-------4---2-------2---0-------0---2-------2-----|
D--4-----------0-----------0-----------0---------------|
A------------------------------------------------------|
E------------------------------------------------------|
   Carry on, carry on We'll have a glass of wine or...

   A
E--------------------------------0-----0---------------|
B------2-----2-----2-----2-----2---2---2---------------|
G----2-----2-----2-----2-----2-------2-2---------------|
D--2-----2-----2-----2-----2-----------2---------------|
A--------------------------------------0---------------|
E------------------------------------------------------|
............. a cigarette

Instrumental part: like verse
Related for Carry On tab