Song name
# A B C D E F G H I J K L M N O P Q R S T U V W X Y Z

Cranberries - Time Is Thicking Out tab

INTRO

1------------------------------------2--2-----3--3----2--2----3--3 
2---2-3---2-3---2-3---2-3-----------3-3------3-3-----3-3-----3-3--
3----------------------------------2---2----2---2---2---2---2---2-
4---------------------------------0--------0-------0-------0------
5---2-2---2-2---2-2---2-2-----------------------------------------
6-----------------------------------------------------------------


VERSE

1---2-2----2-2--
2---3-3----3-3--
3---4-4----4-4--
4---4-4----4-4--
5---------------
6---------------


CHORUS

1------------2--2-----3--3----2--2----3--3--
2-----------3-3------3-3-----3-3-----3-3----
3----------2---2----2---2---2---2---2---2---
4---------0--------0-------0-------0--------
5-------------------------------------------
6-------------------------------------------
Tap to rate this tab
# A B C D E F G H I J K L M N O P Q R S T U V W X Y Z