Song name
# A B C D E F G H I J K L M N O P Q R S T U V W X Y Z

Cranberries - Zombie tab

#----------------------------------PLEASE NOTE--------------------------------#
#This file is the author's own work and represents their interpretation of the#
#song. You may only use this file for private study, scholarship, or research.#
#-----------------------------------------------------------------------------#
#-- File created with Instab - http://www.pconline.com/~smcarey/instab.html --#
#-----------------------------------------------------------------------------#

Author/Artist: Cranberries
Title: Zombie

Tuning:  step up

h hammer on
p pull off
/ slide up
\ slide down



-------|----------------------------------------------------------------------|
-------|----------------------------------------------------------------------|
-------|-5--5--5--5-5--5-5--5-5-5--5--5--5--5-5--5-5--5-5-5--4--4--4--4-4--4--|
-------|-6--6--6--6-6--6-6--6-6-6--5--5--5--5-5--5-5--5-5-5--5--5--5--5-5--5--|
-------|-8--8--8--8-8--8-8--8-8-8--3--3--3--3-3--3-3--3-3-3--5--5--5--5-5--5--|
-------|----------------------------------------------------------------------|
   Intro

----------------------------------|-------------------------------------------|
----------------------------------|-------------------------------------------|
-4-4-4---0--0--0--0-0--0-0--0-0-0-|-------------------------------------------|
-5-5-5---0--0--0--0-0--0-0--0-0-0-|-------------------------------------------|
-5-5-5---0--0--0--0-0--0-0--0-0-0-|-------------------------------------------|
----------------------------------|-------------------------------------------|


-------|----------------------------------------------------------------------|
-------|----------------------------------------------------------------------|
-------|----------------------------------------------------------------------|
-------|-5--5--5--5-5-5--5--5-5-5-5-5--5--5--5-5-5--5--5-5-5-5-5--5--5--5-5-5-|
-------|-7--7--7--7-7-7--7--7-7-7-7-3--3--3--3-3-3--3--3-3-3-3-5--5--5--5-5-5-|
-------|-7--7--7--7-7-7--7--7-7-7-7-0--0--0--0-0-0--0--0-0-0-0-3--3--3--3-3-3-|
   Chorus G1

---------------------------------------|--------------------------------------|
---------------------------------------|--------------------------------------|
---------------------------------------|--------------------------------------|
--5--5-5-5--0--0--0--0-0-0--0--0-0-0-0-|--------------------------------------|
--5--5-5-5--0--0--0--0-0-0--0--0-0-0-0-|--------------------------------------|
--3--3-3-3--2--2--2--2-2-2--2--2-2-2-2-|--------------------------------------|


---|----------------------------------0-------0---------0-------0---0----0---|
---|--5-------5-------5-------5---------0---0---0---0-----3---3---3---3--0---|
---|----4---4---4-------5---5---5---------4-------4---------0------------4---|
---|------5-------5-------5-------5------------------------------------------|
---|-------------------------------------------------------------------------|
---|-------------------------------------------------------------------------|
    Intro Chorus G2

---|--0---------------0-------------0-------------------|---------------------|
---|--0---------------0-----------0---3------0-0-0------|---------------------|
---|--4---------------5-----------------0-0--0-0-0------|---------------------|
---|-----------------------------------------5-5-5------|---------------------|
---|----------------------------------------------------|---------------------|
---|----------------------------------------------------|---------------------|
     Verse  Intro Chords

---|----------------7h8--5h7--3h5--2h3p2-------------|------------------------|
---|---0----------------------------------3--3--0----|------------------------|
---|---------4---------------------------------------|------------------------|
---|-------------------------------------------------|------------------------|
---|-------------------------------------------------|------------------------|
---|-------------------------------------------------|------------------------|


-|-7h8--5h7--7--7-7-7-7-|--|-7h8--5h7-------------|----------------------|---|
-|----------------------|--|-----------7--7-7-7-7-|-7h8--5h7--7--7-7-7-7-|---|
-|----------------------|--|----------------------|----------------------|---|
-|----------------------|3x|----------------------|----------------------|2x-|
-|----------------------|--|----------------------|----------------------|---|
-|----------------------|--|----------------------|----------------------|---|
   Solo

-|-------------------------5-5-5--|-5/7--7--7\5-5--5-5-5-|--|------2--2-------|
-|-7h8--5h7--7\5--5-5--5/7-5-5-5--|-5/7--7--7\5-5--5-5-5-|--|-8\3--3--3--7\5--|
-|--------------------------------|----------------------|--|-----------------|
-|--------------------------------|----------------------|2x|-----------------|
-|--------------------------------|----------------------|--|-----------------|
-|--------------------------------|----------------------|--|-----------------|


-----------------|--------------------|--|----------------------|-------------|
-5--5--5/7-7-7-7-|-7h8--5h7--7--7-7-7-|--|-7h8--5h7--7\5--5--5--|-------------|
-----------------|--------------------|--|----------------------|-------------|
-----------------|--------------------|2x|----------------------|-------------|
-----------------|--------------------|--|----------------------|-------------|
-----------------|--------------------|--|----------------------|-------------|
Tap to rate this tab
# A B C D E F G H I J K L M N O P Q R S T U V W X Y Z