Song name
# A B C D E F G H I J K L M N O P Q R S T U V W X Y Z

Cranberries - Chocolate Brown tab

Cranberries - Chocolate brown

C(1): 010330
G4 : X3333X < Itīs really 333333 but you donīt play the E strings

Intro

  F Fsus4
E ---------------
B ---1-----------
G -2---3-0-2-----
D ---------------
A ---------------
E ---------------


  F Fsus4
E ---------------
B ---1-----------
G -2---3-0-2-----
D ----------3----
A ---------------
E ---------------

  C C(1)
E ---------------
B ---------------
G ---0-----------
D -2---3-0-2-----
A ---------------
E ---------------

C F C

Verse

F Fsus4 x2
G4 C(1) C x2

      F-Fsus4-F        F-Fsus4-F
But i tried      and i sight
F         G4     C(1) C
you never listen to   me
           G4     C(1) C
i feel that way

C             F-Fsus4-F
But you're so young
                     F-Fsus4-F
and you donīt see it now
F         G4     C(1) C
i feel so guilty
                     F-Fsus4-F
and you are chocolate brown

          F
Chocolate brown
       Bb
i can't wait
        F
not too long
       C             F
i will make it up to you
          Bb       F       C
chocolate brown
           (intro)
Chocolate Brown

-------------------------------
Tabbed by Damian Martone

Thatīs how it goes... cranberries fans who likes to play
their songs and lives in Argentina or near... mail me at
damianmartone@msn.com
Tap to rate this tab
# A B C D E F G H I J K L M N O P Q R S T U V W X Y Z