Guitaretab - guitar tabs
Song name
# A B C D E F G H I J K L M N O P Q R S T U V W X Y Z

Cranberries - Animal Instinct tab

t. See http://www.olga.net/faq/ for more information.                     #
#-----------------------------------------------------------------------------#

From: "Zoo Phil" 
Subject: c/cranberries/animal_instinct.tab
Date: Tue, 09 Nov 1999 15:28:48 PST

Intro and verse : Em/Am7/C9/D

			Note : C9(x32030)

Interlude : G/D/C/D/G/D/C/D

Little solo :
h-----> Hammer on

D9h10-9h10-9-10-12-12-12--10---10-109h109h10-9-10--5-5-5--7-------
A--------------------------------------------------------------------
E--------------------------------------------------------------------

Verse and chorus without interlude

End solo :

D9h10-9h10-9-10-12-12-12--10---10-109h109h10-9-10--5-5-5--7-7-7---
A--------------------------------------------------------------------
E--------------------------------------------------------------------

D5-5-5-7-7-7-9-9-9-7-7-7--9-9-9-7-7-7--5-5--5---7-7--79h10-9h10-9--
A--------------------------------------------------------------------
E--------------------------------------------------------------------

D-10-12-12-1214-14-14---1414-14--12-12-12-12--10-10-10-9-9-9--------
A--------------------------------------------------------------------
E--------------------------------------------------------------------

D--5-5-5-7-7-7-5-5-5-7-7-7-9-9-9-7-7-7-5-5-5--7--7-7-----------------
A--------------------------------------------------------------------
E--------------------------------------------------------------------

something like that

if you have any comments  Zoophil@hotmail.com

-

______________________________________________________
[ Tab from: http://www.guitaretab.com/c/cranberries/4238.html ]
Related for Animal Instinct tab