Song name
# A B C D E F G H I J K L M N O P Q R S T U V W X Y Z

Cranberries - Hollywood tab

Added By Mikhailo (mikhailo_@mail.ru)

Artist : Cranberries
Song   : Hollywood

Intro:

G1 (clean electric):
e-------0-------0-------0-------0---------
B----0----0---1---1---1---1---1---(1)-----
G-0---------0-------2-------2-------------
D-----------------------------------------
A-----------3-----------------------------
E-----------------------------------------

Repeat. The note in brackets is only played the first time.

Riff 1 (electric with heavy distortion):
e--------------|-------------|----------------------
b--------------|--5-5-5-5----|----------------------
g--------------|--5-5-5-5----|----------------------
d---2-2-2-2----|--3-3-3-3----|---7-7-7-7-7-7-7-7----
a---2-2-2-2----|-------------|---7-7-7-7-7-7-7-7----
E---0-0-0-0----|-------------|---5-5-5-5-5-5-5-5----

Riff 2 (elecric w/ heavy distortion):
e------------------------|-------------------------------------
b------------------------|-------------------------------------
g------------------------|-------------------------------------
d--2---2---4---5---2-----|-----2---2---4---5---2------4-5-4-5--
a---------------------0--|-------------------------0-----------
E------------------------|-------------------------------------

This is the post-intro and is played at the chorus.
Riff 1 and Riff 2 are played together at the chorus.

Here is the pattern that is played when dolores sings
"this is not hollywood":

Em C Am/Asus2
Tap to rate this tab
# A B C D E F G H I J K L M N O P Q R S T U V W X Y Z