Guitaretab - guitar tabs
Song name
# A B C D E F G H I J K L M N O P Q R S T U V W X Y Z

Cranberries - I Cant Be With You tab

-------------------------------------------------------------------------------
			     I CAN'T BE WITH YOU  The Cranberries 
-------------------------------------------------------------------------------
Tabbed by: reke
E-mail: reke@bk.ru

Tuning: standard

[ Tab from: http://www.guitaretab.com/c/cranberries/4250.html ]
   D               A               Hm              G
e|---------------------------------------------------------------------------|
B|-----3-------3-------3-------3-------3-------3-------3------3--------------|
G|---2---2---2---2---2---2---2---2---2---2---2---2---2---2--2---2------------|
D|-0-------0-----------------------------------------------------------------|
A|-----------------0-------0-------2-------2---------------------------------|
E|-------------------------------------------------3-------3-----------------|

D           A
Lying in my bed again, 
      Hm                    G
And I cry 'cause you're not here. 
D            A
Crying in my head again, 
      Hm                 G
And I know that it's not clear. 
         D
Put your hands, put your hands, 
A                  Hm                 G
Inside my face and see that it's just you. 
         D                         A
But it's bad and it's mad and it's making me sad, 
        Hm              G
Because I can't be with you. 
        D
Be with you. 
        A
Be with you.
        Hm
Be with you.
        G
Be with you.
        D            A          Hm              G
Be with you, be with you, baby, I can't be with you. 


Related for I Cant Be With You tab