Song name
# A B C D E F G H I J K L M N O P Q R S T U V W X Y Z

Cranberries - You & Me tab

Help us improve GuitareTab! Take a short survey!
t. See http://www.olga.net/faq/ for more information.                     #
#-----------------------------------------------------------------------------#

From: "Zoo Phil" 
Subject: c/cranberries/you_and_me.tab
Date: Wed, 01 Dec 1999 08:37:04 PST



fig1
e---------------------------------------------------------------------
b---------------------------------------------------------------------
g----7--------10--------10----------8-------7---7---------------------
d-------8---------8--------8----------10------8----8------------------
a--6-------6---------6------------------------------------------------
E--------------------------------8--------8---------------------------

fig2
e---------------------------------------------------------------------
b---------------------------------------------------------------------
g----7--------10--------10----------8-------7---7--8---7--------------
d-------8---------8--------8----------10------8----------------------
a--6-------6---------6------------------------------------------------
E--------------------------------8--------8---------------------------

Intro:fig1 x 1
      fig2  x 1

Verse: fig1 x 9

chorus: G#5/C5/Bb5/C5/ x 4
G#5(466000)
C5(x35500)
Bb5(x13300)
Note: Sorry, I'm not able to find the chorus, only these chords but they fit 
very well

Verse:fig2 x 1
      fig 1 x 11
Chorus x 8

Verse:fig1 x 8

End:
e--------------------------------------------------------------------
b---------------------------------------------------------------------
g-------8-----------8----------8------------8---------8-----------   
d---------10----------10----------10----------10----------------
a--------------------------------------------------------------------
E----8--------8-----------8---------------8-------8---------------

If you have any comments Zoophil@hotmail.com
Related for You & Me tab