Song name
# A B C D E F G H I J K L M N O P Q R S T U V W X Y Z

Cranberries - Time Is Ticking Out tab

Song Title: Time is ticking out
Artist/Band: The Cranberries
Album: Wake Up & Smell the Coffee, 2001.

Tab by JC Rea(jcrp_21@hotmail.com)--

INTRO:
e|---------------------|
B|-2-3--2-3--2-3--2-3--|
G|---------------------|
D|---------------------|
A|-2-2--2-2--2-2--2-2--|
E|---------------------|

e|-------2-----2--------3-----3--|
B|-----3-----3--------3-----3----|
G|---2-----2--------4-----4------|
D|-0--------------5--------------|
A|-------------------------------|
E|-------------------------------|(x 2 TIMES)

CHORDS:

Bm:  x24432
DMaj:x00232
GMaj:355433

LYRICS:

Bm
 We'd better think about the things we say

 We'd better think about the games we play
DMaj              GMaj
 The world went round, 
DMaj        GMaj
 around and round 

Bm
 We'd better think about the consequences

 We'd better think about the global senses

DMaj         GMaj
 The time went out, 
DMaj        GMaj
 the time went out 

Bm
 What about Chernobyl?

 What about radiation?
DMaj       GMaj
 We don't know, 
DMaj       GMaj
 we don't know 

Bm
 What about deprivation?

 Gluttony, the human nation?

DMaj      GMaj
 We don't know, 
DMaj      GMaj
 we don't know
DMaj      GMaj
 For me love is all, 
DMaj      GMaj
 for me love is all
DMaj      GMaj
 For me love is all, 
DMaj      GMaj
 for me love is all 
Bm
 Time is ticking out.


(It's the same for the rest of the song)

The way to play chorus parts(DMaj and GMaj Chords)is:
e|----2-2------2----------3-----3--|
B|---3--3----3----------3-----3----|
G|--2---2--2----------4-----4------|
D|-0----0-----------5--------------|
A|---------------------------------|
E|---------------------------------|

Check the song for the rythm.

. . . END.

Comments:jcrp_21@hotmail.com
Tap to rate this tab
 
# A B C D E F G H I J K L M N O P Q R S T U V W X Y Z