Song name
# A B C D E F G H I J K L M N O P Q R S T U V W X Y Z

Cranford Nix - Cigarettes And Heroin tab

-------------------------------------------------------------------------------
                Cigarettes and Heroin - Cranford Nix
-------------------------------------------------------------------------------

Tabbed by: squintyjoefan
E-mail: squintyjoefan@hotmail.com

Tuning: Standard (EADGBe)

A really great song by a greatly missed man.

Song can be found at http://www.youtube.com/watch?v=78Gu8jD6yec

Also check out http://www.cranfordnix.com/

Song order

Intro x4
Verse Chords x 2
Verse Riff
Chorus
Verse Chords x 2
Verse Riff
Chorus
Verse Chords x 2
Verse 3
Chorus
Ending


Intro

e|-1/2-2-2--2-2-2------------------------------------------------------------|
B|-2/3-3-3--3-3-3------------------------------------------------------------|
G|-1/2-2-2--2-2-2------------------------------------------------------------|
D|---------------------------------------------------------------------------|
A|---------------------------------------------------------------------------|
E|---------------------------------------------------------------------------|

Verse
Chords

e|---2-----0-----2-------3---------------------------------------------------|
B|---3-----2-----3-------3---------------------------------------------------|
G|---2-----2-----4-------0---------------------------------------------------|
D|---0-----2-----4-------0---------------------------------------------------|
A|---------0-----2-------2---------------------------------------------------|
E|-----------------------3---------------------------------------------------|
   Dmaj   Amaj  Bmin    Gmaj

Verse
Riff

e|----------------------------------------------------3----------------------|
B|----------------------------------------------------3----------------------|
G|----------------------------------------------------0----------------------|
D|-------------2-2--4-2--5-2--4-2-----2-2-2-----------0----------------------|
A|--0-0--4-4--------------------------0-0-0-----------2----------------------|
E|----------------------------------------------------3----------------------|
                                                     Strum Gmaj for 2 bars

Chorus

e|--2-----0------2------3-----------------2------0------2--------------------|
B|--3-----2------3------3-----------------3------2------3--------------------|
G|--2-----2------2------0-----------------2------2------2--------------------|
D|--0-----2------0------0-----------------0------2------0--------------------|
A|--------0-------------2------------------------0---------------------------|
E|----------------------3----------------------------------------------------|
  Dmaj   Amaj   Dmaj   Gmaj              Dmaj   Gmaj    Dmaj

Play this progression twice            End on this progression
                                      Strum Dmaj lots to go into the next verse

Verse 3 

The riff isn't played on this verse.  Instead play these chords

e|---0------------3----------------------------------------------------------|
B|---2------------3----------------------------------------------------------|
G|---2------------0----------------------------------------------------------|
D|---2------------0----------------------------------------------------------|
A|---0------------2----------------------------------------------------------|
E|----------------3----------------------------------------------------------|
     Amaj        Gmaj

Play each chord for 2 bars each


Ending

e|--2------3------3------2---------------------------------------------------|
B|--3------3------3------3---------------------------------------------------|
G|--2------2------2------2---------------------------------------------------|
D|--0------0------0------0---------------------------------------------------|
A|---------------------------------------------------------------------------|
E|---------------------------------------------------------------------------|

************************************

| /   slide up
| \   slide down
| h   hammer-on
| p   pull-off
| ~   vibrato
| +   harmonic
| x   Mute note
| b   Bend
| pb  Pre-bend
| br  Bend release
| pbr Pre-bend release
| brb Bend release bend

************************************
Tap to rate this tab
 
# A B C D E F G H I J K L M N O P Q R S T U V W X Y Z