Guitaretab - guitar tabs
Song name
# A B C D E F G H I J K L M N O P Q R S T U V W X Y Z

Crash Romeo - Die In Your Arms tab

-------------------------------------------------------------------------------
			     Die In Your Arms - Crash Romeo
-------------------------------------------------------------------------------
Tabbed by: Dani :]
Email: daniisaur@hotmail.com

1st tab
Tabbed this using an acoustic guitar. 
it would sound better if you play it acoustically.

Tuning: Standard EADGBe


Intro:
[ Tab from: http://www.guitaretab.com/c/crash-romeo/107086.html ]
(clean)
e|-------0-------0-----0-------0----------------------------|
B|---------0-------0-----0-------0--------------------------|
G|----------------------------------------------------------|2x
D|-------------2--------------------------------------------|
A|----4-4-------0------0---7-7-----2------------------------|
E|----------------------------------------------------------|

You figure out the strumming.
e|--0---0---0---0----|
B|--0---0---0---0----|
G|--6---2---9---4----|2x
D|--6---2---9---4----|
A|--4---0---7---2----|
E|-------------------|


e|--0----0---|
B|--0----0---|
G|--2----4---|
D|--2----4---|
A|--0----2---|
E|-----------|

=====================================================================
Related for Die In Your Arms tab
Advertisement will be closed in 10 seconds