Song name
# A B C D E F G H I J K L M N O P Q R S T U V W X Y Z

Crash75 - Flying tab

Intro
Guitar 1
e-------------------------------------------------|
b-------------------------------------------------|
g-------------------------------------------------|
d-------------------------------------------------|
a--7-7-5-1-7-7-5-1--------------------------------|
E--9-9-7-3-9-9-7-3--------------------------------|

Guitar 2
Pick

e-------------------------------------------------|
b-------------------------------------------------|
g-------------------------------------------------|
d-------------------------------------------------|
a--7-7-5-1-7-7-5-1--------------------------------|
E--9-9-7-3-9-9-7-3--------------------------------|
Verse

e-------------------------------------------------|
b-------------------------------------------------|
g-------------------------------------------------|
d-------------------------------------------------|
a------4-4-4-4-4-4-4-4-4-4-4-4--------------------|
E------7-7-7-7-7-7-7-7-7-7-7-7--------------------|

e-------------------------------------------------|
b-------------------------------------------------|
g-------------------------------------------------|
d-------------------------------------------------|
a------5-5-5-5-5-5-5-5-5-5-5-5-5------------------|
E------7-7-7-7-7-7-7-7-7-7-7-7-7------------------|

e-------------------------------------------------|
b-------------------------------------------------|
g-------------------------------------------------|
d-------------------------------------------------|
a--------0-0-0-0-0-0-0-0-0-0-0-0-0----------------|
E--------7-7-7-7-7-7-7-7-7-7-7-7-7----------------|

GUitar 1 Picks

e-------------------------------------------------|
b-------------------------------------------------|
g-------------------------------------------------|
d-------------------------------------------------|
a------4-4-4-4-4-4-4-4-4-4-4-4--------------------|
E------7-7-7-7-7-7-7-7-7-7-7-7--------------------|

e-------------------------------------------------|
b-------------------------------------------------|
g-------------------------------------------------|
d-------------------------------------------------|
a------5-5-5-5-5-5-5-5-5-5-5-5-5------------------|
E------7-7-7-7-7-7-7-7-7-7-7-7-7------------------|




e-------------------------------------------------|
b-------------------------------------------------|
g-------------------------------------------------|
d-------------------------------------------------|
a--------0-0-0-0-0-0-0-0-0-0-0-0-0----------------|
E--------7-7-7-7-7-7-7-7-7-7-7-7-7----------------|

Chorus


e-------------------------------------------------|
b-------------------------------------------------|
g-------------------------------------------------|
d-------------------------------------------------|
a--7-7-5-1-7-7-5-1-7-7-7-7-5-5-1-1----------------|
E--9-9-7-3-9-9-7-3-9-9-9-9-7-7-3-3----------------|

e-------------------------------------------------|
b-------------------------------------------------|
g-------------------------------------------------|
d-------------------------------------------------|
a--7-7-5-1-7-7-5-1-7-7-7-7-5-5-1-1----------------|
E--9-9-7-3-9-9-7-3-9-9-9-9-7-7-3-3----------------|

e----12-12-10-11-12-12-10-11----------------------|
b-------------------------------------------------|
g-------------------------------------------------|
d-------------------------------------------------|
a-------------------------------------------------|
E-------------------------------------------------|

e----121-01-21-01----------------------------------|
b---------------------121-01-21-01-----------------|
g--------------------------------------------------|
d--------------------------------------------------|
a--------------------------------------------------|
E-------------------------------------121-01-21-01-|


Words coming soon
Intro
Verse
Chorus
Verse
Chorus
Verse
Solo
Chorus
Tap to rate this tab
# A B C D E F G H I J K L M N O P Q R S T U V W X Y Z