Song name
# A B C D E F G H I J K L M N O P Q R S T U V W X Y Z

Crash75 - Like A Stupid Man tab

Palm Mute
HEavy Distortion
Verse
e ---------------------------------------------------|
b ---------------------------------------------------|
g ---------------------------------------------------|
d ---------------------------------------------------|
a -7-7-7-7-7-7-7-7-7-7-7-7---------------------------|
E -5-5-5-5-5-5-5-5-5-5-5-5---------------------------|

e --------------------------------------------------|
b --------------------------------------------------|
g --------------------------------------------------|
d -7-7-7-7-7-7-7-7-7-7-7-7--------------------------|
a -5-5-5-5-5-5-5-5-5-5-5-5--------------------------|
E --------------------------------------------------|


e --------------------------------------------------|
b --------------------------------------------------|
g --------------------------------------------------|
d --------------------------------------------------|
a --9-9-9-9-9-9-9-9-9-9-9-9-------------------------|
E --7-7-7-7-7-7-7-7-7-7-7-7-------------------------|

e --------------------------------------------------|
b --------------------------------------------------|
g --------------------------------------------------|
d ---9-9-9-9-9-9-9-9-9-9-9-9------------------------|
a ---7-7-7-7-7-7-7-7-7-7-7-7------------------------|
E --------------------------------------------------|

Pre Chorus Picking though and go through chorus while chorus is played by guitar 1

e ---------------------------------------------------|
b ---------------------------------------------------|
g ---------------------------------------------------|
d ---------------------------------------------------|
a -7-7-7-7-7-7-7-7-7-7-7-7---------------------------|
E -5-5-5-5-5-5-5-5-5-5-5-5---------------------------|

e --------------------------------------------------|
b --------------------------------------------------|
g --------------------------------------------------|
d -7-7-7-7-7-7-7-7-7-7-7-7--------------------------|
a -5-5-5-5-5-5-5-5-5-5-5-5--------------------------|
E --------------------------------------------------|


e --------------------------------------------------|
b --------------------------------------------------|
g --------------------------------------------------|
d --------------------------------------------------|
a --9-9-9-9-9-9-9-9-9-9-9-9-------------------------|
E --7-7-7-7-7-7-7-7-7-7-7-7-------------------------|

e --------------------------------------------------|
b --------------------------------------------------|
g --------------------------------------------------|
d ---9-9-9-9-9-9-9-9-9-9-9-9------------------------|
a ---7-7-7-7-7-7-7-7-7-7-7-7------------------------|
E --------------------------------------------------|


Chorus
Normal with distortion
e --------------------------------------------------|
b --------------------------------------------------|
g --------------------------------------------------|
d --------------------------------------------------|
a ----7-7-7-7-7-7-----------------------------------|
E ----5-5-5-5-5-5-----------------------------------|


e --------------------------------------------------|
b --------------------------------------------------|
g --------------------------------------------------|
d ---7-7-7-7-7-7------------------------------------|
a ---5-5-5-5-5-5------------------------------------|
E --------------------------------------------------|


e --------------------------------------------------|
b --------------------------------------------------|
g --------------------------------------------------|
d --------------------------------------------------|
a --9-9-9-9-9-9-------------------------------------|
E --7-7-7-7-7-7-------------------------------------|

e --------------------------------------------------|
b --------------------------------------------------|
g --------------------------------------------------|
d --9-9-9-9-9-9-------------------------------------|
a --7-7-7-7-7-7-------------------------------------|
E --------------------------------------------------|

Solo Clean

e ----------------------------------------8-10-------------|
b -----------------------------------8-10------------------|
g -----------------------------8-10------------------------|
d --7-7-7-7-9-------------8-10-----------------------------|
a -------------------8-10----------------------------------|
E --------------8-10---------------------------------------|


e-  ------------------------------------------------------------------------|
b-  ------------------------------------------------------------------------|
g-  ------------------------------------------------------------------------|
d-  -------------------------------------------------------------0-3-2-0-2--|
a-  --0--1--2-2222222222----------------------------------------------------|
e-  -----------------------33333333333---5555555555---111111111-------------|
Words

Verse 1
I dont know   why you hate
everything    about me
i dont try    to be bad
But some stuff happens when im mad
Drums and Bass
Pre Chorus
Chorus
Ill make it come out straight
So quick youll turn around
You wont expect whats happening
like a stupid man

Verse 2


I think that  Its over
between us   in years so
i made it   through such stuff
or whatever you call life
Chorus
solo
Chorus
Tap to rate this tab
 
# A B C D E F G H I J K L M N O P Q R S T U V W X Y Z