Song name
# A B C D E F G H I J K L M N O P Q R S T U V W X Y Z

Crash75 - Good For Now tab

PIcking
e---7-7-7-7-7-7-7-7-------------------------------
b----9-9-9-9-9-9-9-9------------------------------
g--------------------------------------------------
d--------------------------------------------------
a--------------------------------------------------
E--------------------------------------------------

e----7-7-7-7-7-7-7-7-------------------------------
b-----9-9-9-9-9-9-9-9-----------------------------
g--------------------------------------------------
d--------------------------------------------------
a--------------------------------------------------
E--------------------------------------------------

e--------------------------------------------------
b--------------------------------------------------
g--------------------------------------------------
d--------------------------------------------------
a----9-x-x-9-x-x-9-----7-x-x-7-x-x-7---------------
E----7-x-x-7-x-x-7-----5-x-x-5-x-x-5---------------

e--------------------------------------------------
b--------------------------------------------------
g--------------------------------------------------
d--------------------------------------------------
a----9-x-x-9-x-x-9-----7-x-x-7-x-x-7---------------
E----7-x-x-7-x-x-7-----5-x-x-5-x-x-5---------------

PIcking
e---7-7-7-7-7-7-7-7-------------------------------
b----9-9-9-9-9-9-9-9------------------------------
g--------------------------------------------------
d--------------------------------------------------
a--------------------------------------------------
E--------------------------------------------------

PIcking
e---7-7-7-7-7-7-7-7-------------------------------
b----9-9-9-9-9-9-9-9------------------------------
g--------------------------------------------------
d--------------------------------------------------
a--------------------------------------------------
E--------------------------------------------------

e--------------------------------------------------
b--------------------------------------------------
g--------------------------------------------------
d--------------------------------------------------
a----9-x-x-9-x-x-9-----7-x-x-7-x-x-7---------------
E----7-x-x-7-x-x-7-----5-x-x-5-x-x-5---------------

e--------------------------------------------------
b--------------------------------------------------
g--------------------------------------------------
d--------------------------------------------------
a----9-x-x-9-x-x-9-----7-x-x-7-x-x-7---------------
E----7-x-x-7-x-x-7-----5-x-x-5-x-x-5---------------

End with a Bass solo and Drum Solo together!
Tap to rate this tab
# A B C D E F G H I J K L M N O P Q R S T U V W X Y Z