Song name
# A B C D E F G H I J K L M N O P Q R S T U V W X Y Z

Crashdiet - Breaking The Chainz tab

rythm
---------------------------------------------------------------|
---------------------------------------------------------------|
------------------2---------------------------------2----------|
-5----------------0---------------7-----------------0----------|plays once
-3--------------------------------5----------------------------|before
---------------------------------------------------------------|the lead comes
lead                                                          in
-12---------12---------14--------14---------16---------18--------22b--------|
-15b--------15b--------17b-------17b--------19b--------21b------------------|
----------------------------------------------------------------------------|
----------------------------------------------------------------------------|
----------------------------------------------------------------------------|
----------------------------------------------------------------------------|
Verse:
-------------------------------------------------------------  ------------|
-------------------------------------------------------------  ------------|
------------------2----------------------------------2-------  -8--6-------|
-5----------------0----------------7-----------------0-------  ------------|
-3---------------------------------5-------------------------  ------------|
-------------------------------------------------------------  ------------|

Bridge
-----------------------------------------------------------------|
-----------------------------------------------------------------|
-----------------------------------------------------------------|on the third
-9--------11--9----7----8--6-------------------------------------|one don't
-7----------------------------x2---------------------------------|play the
-----------------------------------------------------------------|lead

Chorus
-----------------------------------------------------------------------|
-----------------------------------------------------------------------|
-----------------------------------------------------------------------|
------5------------------------7--------9------------------------------|
------3------------------------5--------7------------------------------|
-0-0-------------------------------------------------------------------|

Bridge (after solo)
-12----------------14----------------16-----------------18--------22---19-22--|b
-15b---------------17b---------------19b----------------21b-------------------|
------------------------------------------------------------------------------|
------------------------------------------------------------------------------|
-------------------------------------------------------------x2---------------|
------------------------------------------------------------------------------|
Tap to rate this tab
# A B C D E F G H I J K L M N O P Q R S T U V W X Y Z