Song name
# A B C D E F G H I J K L M N O P Q R S T U V W X Y Z

Crashdiet - Lost Horizons tab

-------------------------------------------------------------------------------
			LOST HORIZONS - Michael Schenker Group
-------------------------------------------------------------------------------

MSG
Lost Horizons
from: The Michael Schenker Group (1980)

Tabbed by:malpka
Email:sfaurot@hotmail.com

Tuning:Standard


Intro: (free time)
e|---------------------------------------------------------------------------|
B|---------------------------------------------------------------------------|
G|--(2b4) r~~~-------2b4~~~  r~~~   b4~~~~----(2b4) r~~ /5~~~~~~~\-----------|
D|---------------------------------------------------------------------------|
A|---------------------------------------------------------------------------|
E|---------------------------------------------------------------------------|


[FIG: 1]
e|---------15-14h15p14------------|---------/15--14---/17~~~~------|
B|-----17---------------15/17~~~~~|~~---17-------------------------|
G|--------------------------------|--------------------------------|
D|-(14)---------------------------|--------------------------------|
A|--------------------------------|--------------------------------|
E|--------------------------------|--------------------------------|
 |                                |                                |
e|--------------------------------|--------------------------------|
B|--------------------------------|--------------------------------|
G|--------------------------------|--------------------------------|
D|----------5---4h5p4-------------|----------5----4----4/7~~~~-----|
A|------7---------------5/7~~~~~--|------7-------------------------|
E|--0-----------------------------|--0-----------------------------|



e|---------15-14h15p14------------|---------/15--14----------------|
B|-----17---------------15/17~~~~~|~~---17------------15~~~~~~-----|
G|--------------------------------|--------------------------------|
D|-(14)---------------------------|--------------------------------|
A|--------------------------------|--------------------------------|
E|--------------------------------|--------------------------------|
 |                                |                                |
e|--------------------------------|--------------------------------|
B|--------------------------------|--------------------------------|
G|--------------------------------|--------------------------------|
D|----------5---4h5p4-------------|----------/5----4---------------|
A|------7---------------5/7~~~~~--|------7-------------5~~~~~------|
E|--0-----------------------------|--0-----------------------------|


e|---------15-14h15p14------------|---------/15--14---/17~~~~------|
B|-----17---------------15/17~~~~~|~~---17-------------------------|
G|--------------------------------|--------------------------------|
D|-(14)---------------------------|--------------------------------|
A|--------------------------------|--------------------------------|
E|--------------------------------|--------------------------------|
 |                                |                                |
e|--------------------------------|--------------------------------|
B|--------------------------------|--------------------------------|
G|--------------------------------|--------------------------------|
D|----------5---4h5p4-------------|---------/5----4----4/7~~~~-----|
A|------7---------------5/7~~~~~--|------7-------------------------|
E|--0-----------------------------|--0-----------------------------|




e|--17--18--19--15|
B|----------------|
G|----------------|
D|----------------|
A|----------------|
E|----------------|
 |                |
e|----------------|
B|----------------|
G|--2----3----4---|
D|--2----3----4---|
A|--0----1----2---|
E|---------------0|



e|-/24~~~~~~~~~~~~~~~~~~~~~~~~~~~-|--------------------------------|
B|--------------------------------|--------------------------------|
G|--------------------------------|--------------------------------|
D|--------------------------------|--------------------------------|
A|--------------------------------|--------------------------------|
E|--------------------------------|--------------------------------|
 |                                |                                |
e|--------------------------------|--------------------------------|
B|--9----------------------9------|-------------9--------------7---|
G|--9----------------------9------|-------------9--------------7---|
D|--9----------------------9------|-------------9--------------7---|
A|--7----------------7-----7------|---7----7----7--------------5---|
E|-------------------0------------|---0----0---------0----0--------|


e|--------------------------------|--------------------------------|
B|-------------9--------------7---|-------------9--------------7---|
G|-------------9--------------7---|-------------9--------------7---|
D|-------------9--------------7---|-------------9--------------7---|
A|---7----7----7--------------5---|---7----7----7--------------5---|
E|---0----0---------0----0--------|---0----0---------0----0--------|


VERSE 1:
[FIG: 2]
   I've stood in time                     wind and rain
e|--------------------------------|--------------------------------|
B|--9----------------------9------|-------------9--------------7---|
G|--9----------------------9------|-------------9--------------7---|
D|--9----------------------9------|-------------9--------------7---|
A|--7----------------7-----7------|---7----7----7--------------5---|
E|-------------------0------------|---0----0---------0----0--------|

   I have no feelings                   or name
e|--------------------------------|--------------------------------|
B|-------------9--------------7---|-------------9--------------7---|
G|-------------9--------------7---|-------------9--------------7---|
D|-------------9--------------7---|-------------9--------------7---|
A|---7----7----7--------------5---|---7----7----7--------------5---|
E|---0----0---------0----0--------|---0----0---------0----0--------|

    But I can see...                 I can hear
e|--------------------------------|--------------------------------|
B|-------------9--------------9---|-------------9-----------9\-----|
G|-------------9--------------9---|-------------9-----------9\-----|
D|-------------9--------------9---|-------------9-----------9\-----|
A|---7----7----7--------------7---|---7----7----7-----------7\-----|
E|---0----0---------0----0--------|---0----0---------0------0------|

    The voice of death is        shouting in my ear
e|--------------------------------|--------------------------------|
B|--------------------------------|--------------------------------|
G|---4---4-----4---4-----4---4----|---4---4------------------------|
D|---4---4-----4---4-----4---4----|---4---4-----7---4-----7---8----|
A|---2---2-----2---2-----2---2----|---2---2-----5---2-----5---6----|
E|--------------------------------|--------------------------------|

VERSE 2:
[FIG: 2]
	Making war
	Making love
	You know what I'm thinking of

	How many times
	The traps are set
	You can't remember and I can't forget


        Can you see me now Can you feel the pain Can you heal the scars on me
e|--------------------|--------------------|--------------------|--------------------|
B|-8------------------|-5------------------|-5------------------|--------------------|
G|-9------------------|-5------------------|-6------------------|--------------------|
D|-9------------------|-5------------------|-7------------------|--------------------|
A|-7------------------|-3------------------|-4------------------|--------------------|
E|--------------------|--------------------|--------------------|---5~----6~----7~---|

        Life within my heart  Hope within my soul            Is dying
e|--------------------|--------------------|--------------------|--------------------|
B|-8------------------|-5------------------|-5------------------|--------------------|
G|-9------------------|-5------------------|-6------------------|--------------------|
D|-9------------------|-5------------------|-7------------------|--------------------|
A|-7------------------|-3------------------|-4------------------|--------------------|
E|--------------------|--------------------|--------------------|---5~----6~----7~---|


[FIG: 1]


VERSE 3:
[FIG: 2]
	Bid farewell
	The works of men
	When cries of anger sound again

	My tears of anger
	Cut like a knife
	How can I justify this life







| /  slide up
| \  slide down
| h  hammer-on
| p  pull-off
| ~  vibrato
| +  harmonic
| x  Mute note
===============================================================================
Tap to rate this tab
# A B C D E F G H I J K L M N O P Q R S T U V W X Y Z