Song name
# A B C D E F G H I J K L M N O P Q R S T U V W X Y Z

Crashdiet - The Buried Song tab

CRASHDIET THE BURIED SONG FROM UNACTTRACTIVE REVOLUTION
its 100 PERCENT RIGHT



|--------------------------|
|--------------------------|
|-9-9--7-7--10-10--9-9--9-9|
|-9-9--7-7--10-10--9-9--9-7|
|-7-7--5-5--8--8---7-7--7-7|
|--------------------------|


THEN:
|--------------------------------------------|
|--------------------------------------------|
|----9-9----7-7------10-10------9-9-----9-9--|
|----9-9----7-7------10-10------9-9-----9-9--|
|----7-7----5-5------8--8-------7-7-----7-7--|
|-0-0----0-0-----0-0--------0-0-----0-0------|

then im not really sure, but i think its something like this when the 
vocals come in:


I got my ass in trouble again ,Same old ball, same old chain
|--------------------------------------------------|
|--------------------------------------------------|
|--------------------------------------------------|
|-9-9-9-9--7-7-7-7--10-10-10-10--9-9-9-9---9-9-9-9-|
|-9-9-9-9--7-7-7-7--10-10-10-10--9-9-9-9---9-9-9-9-|
|-7-7-7-7--5-5-5-5--8--8--8--8---7-7-7-7---7-7-7-7-|


I've got no manners and it ain't okay Every night I end up in jail

|--------------------------------------------------|
|--------------------------------------------------|
|--------------------------------------------------|
|-9-9-9-9--7-7-7-7--10-10-10-10--9-9-9-9---9-9-9-9-|
|-9-9-9-9--7-7-7-7--10-10-10-10--9-9-9-9---9-9-9-9-|
|-7-7-7-7--5-5-5-5--8--8--8--8---7-7-7-7---7-7-7-7-|

in jail,
|--------------------------|
|--------------------------|
|-9-9--7-7--10-10--9-9--9-9|
|-9-9--7-7--10-10--9-9--9-9|
|-7-7--5-5--8--8---7-7--7-7|
|--------------------------|

in jail,
|--------------------| [i think its like this]
|--------------------|
|--------------------|
|--------------------|
|-5-5--3-3--6-6--5-5-|
|-5-5--3-3--6-6--5-5-|
Tap to rate this tab
 
# A B C D E F G H I J K L M N O P Q R S T U V W X Y Z