Song name
# A B C D E F G H I J K L M N O P Q R S T U V W X Y Z

Crashdiet - Armageddon tab

i think this song might be a half step down, not sure hihi :)

INTRO
|------------------------------------------------|
|------------------------------------------------|
|----------------------------------5----------7--|
|----------9-----------5-----------3----------5--|
|-0-0-0-0--7--0-0-0-0--3---0-0-0-0---0-0-0-0-----|
|------------------------------------------------|

|--------------------------------------------------|
|--------------------------------------------------|
|------------------------------5-------------------|
|---------9----------5---------3-------------------|
|-0-0-0-0-7--0-0-0-0-3--0-0-0-0----5---7-----------|
|--------------------------------0-3-0-5-----------|

VERSE- LEAD GUITAR(martin sweet):

|----------------| altrough verse 'til the bridge comez
|----------------|
|----------------|
|-9------5---7---|
|-7------3---5---|
|----------------|

VERSE-RHYTM GUITAR(simon cruz)
|----------------------------------| you'll have to palm mute and find the
|----------------------------------|  rhythm =) yourself.
|----------------------------------|
|----------------------------------|
|----------------------------------|
|-0-0-0-0-0-0-0-0-0-0-0-0-0-0-0-0-0|

BRIDGE (now,im really not sure but this is all i can really hear haha)

|-------|im workin on the bridge haha, its hard
|-------|
|-------|
|--7-5--|
|--5-3--|
|-------|
Tap to rate this tab
 
# A B C D E F G H I J K L M N O P Q R S T U V W X Y Z