Song name
# A B C D E F G H I J K L M N O P Q R S T U V W X Y Z

Crashdiet - Native Nature tab

NATIVE NATURE BY CRASHDIET Tabs by: rick storm

X = just palm mute ;)


    Intro: "slippin' outta bed"...
|--------------------------------|
|--------------------------------|
|---------4----------------4-----|
|-4-6-4-6-4-6-5-4--4-6-4-6-4-4*--|  (leave out the stared 4* 2nd time)
|-4-6-4-6---6-5-4--4-6-4-6---4*--|
|--------------------------------|
  X X X X   X X X  X X X X

 "Trippin' on my stride"...
|--------------------------------------------------|
|--------------------------------------------------|
|--------------------------------------------------| REPEAT 'til bridge comez
|--------------5-----------7-----------5-----------|
|--3-----------3-----------5-----------3-----------|
|--1-0-0-0-0-0---0-0-0-0-0---0-0-0-0-0---0-0-0-0-0-|


 "Rollin' downtown"...
|---------------------|
|---------------------|
|---------------------|
|---------6-----------|
|-6-6-8-8-4-44-4-4-4--|
|-4-4-6-6---22-2-2-2--|

the chorus is strange, i think i know it, but I need to nail it first, i mean before i 
it to you ;)
Tap to rate this tab
 
# A B C D E F G H I J K L M N O P Q R S T U V W X Y Z