Song name
# A B C D E F G H I J K L M N O P Q R S T U V W X Y Z

Crashdiet - Falling Rain tab

D tuning/1 step down

Clean guitar
Intro

This part is really tricky but you play like a e minor bar chord at the 7th fret of the a string 

E------7---------------7------------|
B------8---10--8-8-----8---10---8-8-|
G----------11--9-9---------11---9-9-|
D-----------------------------------|
A--7-7---7---7-----7-7---7----7-----|
E-----------------------------------|

E------7---------------7------------|
B------8---10--8-8-----8---10---8-8-|
G----------11--9-9---------11---9-9-|
D-10-10--10--10---10-10--10---10----|
A-----------------------------------|
E-----------------------------------|

at the same time as the dist guitar
E------7-7--1010-7-7----------------| 
B-8-8-------------------------------|
G-9-9--9-9--9-9--9-9----------------|
D-----------------------------------|
A-----------------------------------|
E-----------------------------------|

distortion guitar

E-------2-2------------|
B-------3-3------------|
G-------2-2---5-5------|
D-2-2---0-0---5-5------|
A-2-2---------3-3------|
E-0-0------------------|

Vers

She's an angel...
E--------------------------------------|
B------------------3-3-----------------|
G------------------2-2-5-5-5-5-5-5-5-5-|
D-2-2-2-2-2-2-2-2--0-0-5-5-5-5-5-5-5-5-|
A-2-2-2-2-2-2-2-2------3-3-3-3-3-3-3-3-|
E-0-0-0-0-0-0-0-0----------------------|

E-----------------------|
B-----------------------|
G-5-5-5-5-5-5-5-5-------|
D-5-5-5-5-5-5-5-5-------|
A-3-3-3-3-3-3-3-3-------|
E-----------------------|

Pre-chorus

oh i can see it in her eyes
                      the way she tell her lies
E---------------------------------------|
B-3-----------------------3-------------|
G-2-----------5-----------2-----------5-|
D-0-----2-----5-----5-----0-----2-----5-|
A-------2-----3-----5-----------2-----3-|
E-------0-----------3-----------0-------|

Chorus

Taste the falling raaaaaaaaaaaaaaaaaiin
E---------------------------------------|
B---------------------------------------|
G-----------------3---------------10-8--|
D--5-------5------3---------------10-8--|
A--5-------5------1---------------8--6--|
E--3-------3----------------------------|

Taste the falling raaaaaaaaaaaaaaaaaiin
E---------------------------------------|
B---------------------------------------|
G-----------------3----------------2----|
D--5-------5------3----------------2----|
A--5-------5------1----------------0----|
E--3-------3----------------------------|

Taste the falling raaaaaaaaaaaaaaaaaiin
E---------------------------------------|
B---------------------------------------|
G-----------------3---------------10-8--|
D--5-------5------3---------------10-8--|
A--5-------5------1---------------8--6--|
E--3-------3----------------------------|

E---------------------------------|
B---------------------------------|
G-8-8-8-8-8-8-8-8-8-8--10---------|
D-8-8-8-8-8-8-8-8-8-8--10------5--|
A-6-6-6-6-6-6-6-6-6-6--8-------5--|
E------------------------------3--|
Tap to rate this tab
 
# A B C D E F G H I J K L M N O P Q R S T U V W X Y Z